top separator

Home

Forum

What's New

Submit a Tab

FAQ

Links

Contact Us

Link to Us

MuSpy.com

MetalTabs.com logo

Bands

0-9

A

B

C

D

E

F

G

H

I

J

K

L

M

N

O

P

Q

R

S

T

U

V

W

X

Y

Z

Search

What

Where
 

Empiria - "Black Erotica" Guitar Tab

Plain Text Version
More Empiria Tabs

Hits: 4476
Rated: 5.00 out of 5 (3 votes)
Updated: 2003-12-28 08:04:42

 

By:

Darkenelf

sendpm.gif

email.gif

Important note
We did our best to reach Empiria and ask for their permission to publish this tab. Unfortunately they did not respond to our requests or we could not find a way to contact them. This tab is available online until Empiria tells us to take it down.


#----------------------------------PLEASE NOTE---------------------------------#
#This file is the author's own work and represents their interpretation of the #
#song. You may only use this file for private study, scholarship, or research. #
#Unless specified otherwise, this is NOT an official tab from the band members.#
#------------------------------------------------------------------------------#

  Visit MetalTabs.com for more metal tablature
  
Band: Empriria
Album: Angeltears
Song: Black Erotica
Tabbed by: Martijn Wietsma
Tab Date: 06-09-2003
Email: Northerland@yahoo.co.uk

Standard E Tuning

riff A (lead) (acoustic)
|-------------------------------------------------------|
|-7-7-7-7--7-3--3-3--3-3-3--3--7-3-5~-------------------|
|-------------------------------------------------------|
|-------------------------------------------------------|
|-------------------------------------------------------|
|-------------------------------------------------------|
						(8x)
riff B (chords) (play A+B together from the beginning)
|-------------------------------------------------------|
|-------------------------------------------------------|
|-------------------------------------------------------|
|-------------------------------------------------------|
|-9---------4----------5-----------7--------------------|
|-7---------2----------3-----------5--------------------|
						(4x)
riff C
|-------------------------------------------------------|
|-------------------------------------------------------|
|-------------------------------------------------------|
|-------------------------------------------------------|
|-99999999-44444444-55555555-77777777-------------------|
|-77777777-22222222-33333333-55555555-------------------|
						(4x)
riff D (0:42)
|-------------------------------------------------------|
|-------------------------------------------------------|
|-------------------------------------------------------|
|-------------------------------------------------------|
|-7~----------------------------------------------------|
|-5~----------------------------------------------------|

(acoustic part is missing)

riff E (0:49) (slow)
|-------------------------------------------------------|
|-------------------------------------------------------|
|-------------------------------------------------------|
|----------2--3-----------------------------------------|
|-7--------2--3------5--3/5-----------------------------|
|-5--------0--1------3--1/3-----------------------------|
						(1x)
riff F (0:54) (faster)
|-------------------------------------------------------|
|-------------------------------------------------------|
|-------------------------------------------------------|
|------2------------------------------------------------|
|-7----2--3----5--3/5-----------------------------------|
|-5----0--1----3--1/3-----------------------------------|
						(4x)
repeat riff A+C 8x (1:17)

riff G (1:58)
|-------------------------------------------------------|
|-------------------------------------------------------|
|-9---9---9-------------5---5---5--7---5---7------------|
|-7-7-7-7-7--7---7---7--3-3-3-3-3--5-5-3-5-5------------|
|------------5-5-5-5-5----------------------------------|
|-------------------------------------------------------|
    x   x      x   x      x   x      x   x	(8x)

riff H (bass-riff) (till end of song)
|-------------------------------------------------------|
|-7--7-7---2--2-2---3--3-3---5--5-5---------------------|
|-------------------------------------------------------|
|-------------------------------------------------------|

riff I (solo 1) (acoustic)
|-------------------------------------------------------|
|-8------------8-------8-----------10-10-10-8-----------|
|---11-11-11-----11~-----11-11-11-----------------------|
|-------------------------------------------------------|
|-------------------------------------------------------|
|-------------------------------------------------------|
						(2x)
riff J (solo 2) (acoustic)
Play riff C together with riff J till end of song.
|-------------------------------------------------------|
|-8-----------8-----------8----------10-10-10-8---------|
|---11-11-11----11-11-11----11-11-11--------------------|
|-------------------------------------------------------|
|-------------------------------------------------------|
|-------------------------------------------------------|

  Visit MetalTabs.com for more metal tablature

bottom separator

Contact Us | Privacy Policy | Disclaimer | Legal Notice
Copyright © 2001-2014 MetalTabs.com. All Rights Reserved.