top separator

Home

Forum

What's New

Submit a Tab

FAQ

Links

Contact Us

Link to Us

MuSpy.com

MetalTabs.com logo

Bands

0-9

A

B

C

D

E

F

G

H

I

J

K

L

M

N

O

P

Q

R

S

T

U

V

W

X

Y

Z

Search

What

Where
 

Einherjer - "The Eternally Damned" Guitar Tab

Plain Text Version
More Einherjer Tabs

Hits: 4505
Rated: 4.00 out of 5 (3 votes)
Updated: 2003-12-28 08:02:25

 

By:

Darkenelf

sendpm.gif

email.gif

Important note
This tab is available online because we obtained explicit permission from Einherjer or their label.


#----------------------------------PLEASE NOTE---------------------------------#
#This file is the author's own work and represents their interpretation of the #
#song. You may only use this file for private study, scholarship, or research. #
#Unless specified otherwise, this is NOT an official tab from the band members.#
#------------------------------------------------------------------------------#

  Visit MetalTabs.com for more metal tablature
  
Band: Einherjer
Album: Blot
Song: The Eternally Damned
Tabbed by: Martijn Wietsma
Tab Date: 10-11-2003
Email: Northerland@yahoo.co.uk

Standard E Tuning

riff A (lead)
|----------------------------------------------------------------|
|----------------------------------------------------------------|
|------0-0h-----------------0-0h---------------------------------|
|-2-2-------3--2-2------2-2------3--2-2--------------------------|
|----------------------------------------------------------------|
|----------------------------------------------------------------|

riff A (chords)
|----------------------------------------------------------------|
|----------------------------------------------------------------|
|----------------------------------------------------------------|
|-----------------------2-2-------------2------------------------|
|-----------------------2-2-------------2------------------------|
|-----------------------0-0-------------0------------------------|
                        x x             x

riff B (chords) (0:21)
|----------------------------------------------------------------|
|----------------------------------------------------------------|
|----------------------------------------------------------------|
|----------------------------------------------------------------|
|---------2---------2---------3---------3------------------------|
|-00-0000---00-0000---00-0000---00-0000--------------------------|
  xx xxxx   xx xxxx   xx xxxx   xx xxxx			(2x)

|----------------------------------------------------------------|
|----------------------------------------------------------------|
|----------------------------------------------------------------|
|----------------------------------------------------------------|
|---------5------3-----------------------------------------------|
|-00-0000---0000---0000------------------------------------------|
  xx xxxx   xxxx   xxxx					(1x)

riff C (lead-solo) (0:35) (play riff B 1x)
|-7--5h7h8---7-5-------------------------------------------------|
|----------------8-7-5~-----3~-----------------------------------|
|-------------------------------5~-4~----------------------------|
|----------------------------------------------------------------|
|----------------------------------------------------------------|
|----------------------------------------------------------------|

repeat riff B 1x

riff D (1:05)
|----------------------------------------------------------------|
|----------------------------------------------------------------|
|----------------------------------------------------------------|
|-222--222--222--22-22-------------------------------------------|
|-222--222--222--22-22-------------------------------------------|
|-000--000--000--00-00-------------------------------------------|
  xxx  xxx  xxx  xx xx					(1x)

riff E (solo)
|--------------7~-6~---5-----------8-7---------------------------|
|-5~--7h8-7-5--------7---8-7-5---------10-9-10~-----10-8---------|
|-----------------------------------------------9~-------11-9----|
|----------------------------------------------------------------|
|----------------------------------------------------------------|
|----------------------------------------------------------------|

|--------------7~-6~---5-----------12--------------------------------|
|-5~--7h8-7-5--------7---8-7-5--------12-13h15-13p12--12~--10-8------|
|---------------------------------------------------------------11-9-|
|--------------------------------------------------------------------|
|--------------------------------------------------------------------|
|--------------------------------------------------------------------|

repeat riff B under the solo (riff E)

repeat riff C 1x

riff F (play this riff under riff C)
|----------------------------------------------------------------|
|----------------------------------------------------------------|
|----------------------------------------------------------------|
|-22-22---22-22---22-22---22-22---22-22---22-22------------------|
|-22-22---22-22---22-22---22-22---22-22---22-22------------------|
|-00-00---00-00---00-00---00-00---00-00---00-00------------------|
  xx xx   xx xx   xx xx   xx xx   xx xx   xx xx		(1x)

repeat riff B 1x

riff G
|----------------------------------------------------------------|
|----------------------------------------------------------------|
|----------------------------------------------------------------|
|----------------------------------------------------------------|
|-------------3p0h2----------------------------------------------|
|-00-00-00-00----------------------------------------------------|
  xx xx xx xx

repeat riff B + G and riff E 1x

repeat riff D 1x (ending riff)

  Visit MetalTabs.com for more metal tablature

bottom separator

Contact Us | Privacy Policy | Disclaimer | Legal Notice
Copyright © 2001-2014 MetalTabs.com. All Rights Reserved.