top separator

Home

Forum

What's New

Submit a Tab

FAQ

Links

Contact Us

Link to Us

MetalTabs.com logo

Bands

0-9

A

B

C

D

E

F

G

H

I

J

K

L

M

N

O

P

Q

R

S

T

U

V

W

X

Y

Z

Search

What

Where
 

Exciter - "Scream in the Night" Guitar Tab

Plain Text Version
More Exciter Tabs

Hits: 3973
Rated: 4.11 out of 5 (9 votes)
Updated: 2003-12-28 07:53:43

 

By:

EZURATE

sendpm.gif

email.gif

Important note
This tab is available online because we obtained explicit permission from Exciter or their label.


#----------------------------------PLEASE NOTE---------------------------------#
#This file is the author's own work and represents their interpretation of the #
#song. You may only use this file for private study, scholarship, or research. #
#Unless specified otherwise, this is NOT an official tab from the band members.#
#------------------------------------------------------------------------------#

  Visit MetalTabs.com for more metal tablature
  
Band: EXCITER
Album: Violence & Force
Song: Scream in the Night

Copyright (c) Megaforce Records, Inc. 1984
Version 1.0 - November 9, 2003

Transcribed By: Tony Baranowski
E-mail: ezurate@sbcglobal.net

Tuning: Standard

||---RIFF-A--------------------------------------------------------------------
||o----------------------------------------------------------------------------
||-----------------------------------------------------------------------------
||-----------------------------------------7---)-)-)---WHAMMY-BAR-DIP-3x-------
||o-----------------2----------------------5---)-)-)---------------------------
||---0000-0000-0000--320-(0)-000-320-(0)---------------------------------------
     .... .... .... ...      ...
-----------------------------------------------------------------------------||
----------------------------------------------------------------------------o||
-----------------------------------------------------------------------------||
-------------------------------------------5---)-)-)---WHAMMY-BAR-DIP-3x-----||
--------------------2----------------------3---)-)-)------------------------o||
-----0000-0000-0000--320 (0)-000-320-(0)-------------------------------------||
     .... .... .... ...      ...

||---RIFF-B------------------------------------------------------------------||
||o-------------------------------------------------------------------------o||
||---------------------------------------------------------------------------||
||-------------9-12---12-11-12-11-9-------------9-14---14-11-12-11-9---------||
||o------------7-10---10-9--10-9--7-------------7-12---12-9--10-9--7--------o||
||---0000-0000------------------------0000-0000------------------------------||

||---RIFF-C------------------------------------------------------------------||
||o-------------------------------------------------------------------------o||
||---------------------------------------------------------------------------||
||---9-12-11-12-14---9-12-11-12-9---(9)--------------------------------------||
||o--7-10-9--10-12---7-10-9--10-7---(7)-------------------------------------o||
||---------------------------------------------------------------------------||

|---Fill-1--------------------------------------------------------------------|
|-----------------------------------------------------------------------------|
|-----------------------------------------------------------------------------|
|---(9)-SLIGHT-WHAMMY-BAR DIVE-\----------------------------------------------|
|---(7)-------------------------\---------------------------------------------|
|--------------------------------~~~------------------------------------------|

||---CHORUS------------------------------------------------------------------||
||o-------------------------------------------------------------------------o||
||---------------------------------------------------------------------------||
||---5---7---9------5---12---11--12---9--------------------------------------||
||o--3---5---7------3---10---9---10---7-------------------------------------o||
||---------------------------------------------------------------------------||

|----FILL-2-------------------------------------------------------------------|
|-----------------------------------------------------------------------------|
|-----------------------------------------------------------------------------|
|---5---4---5---2-------------------------------------------------------------|
|---3---2---3---0------5---4---5---2---(2)------------------------------------|
|----------------------3---2---3---0---(0)------------------------------------|

END

Full Score Arrangement:
Riff A: 3
Riff B: 4
Riff C: 1
Fill 1: 1
Riff B: 2
Chorus: 2
Riff B: 4
Riff C: 1
Fill 1: 1
Riff B: 2
Chorus: 2
Riff B: 1
Riff C: 2
Riff C: 5 (solo over 5x duration)
Riff C: 1
Fill 2: 1
END

  Visit MetalTabs.com for more metal tablature

bottom separator

Contact Us | Privacy Policy | Disclaimer | Legal Notice
Copyright © 2001-2014 MetalTabs.com. All Rights Reserved.