#----------------------------------PLEASE NOTE---------------------------------#
#This file is the author's own work and represents their interpretation of the #
#song. You may only use this file for private study, scholarship, or research. #
#Unless specified otherwise, this is NOT an official tab from the band members.#
#------------------------------------------------------------------------------#

  Visit MetalTabs.com for more metal tablature
  
Band:	Dying Fetus
Album:	Destroy The Opposition
Song:	Epidemic Of Hate

Copyright  Relapse Records 2001

Transcribed By:	Joe Holly
E-mail:		rivers_of_gore666@yahoo.com

.  - palm mute           /  - slide up to
\  - slide down to       ~  - vibrato
h  - hammer on           b  - Bend
p  - pull off            Suffixes for bend
t  - tap                 f  - full bend    h - half bend
ph - pinched harmonic    q  - quarter bend t - tap bend
*  - see comment         ^  - Hold bend    r release bend
x  - Stuccatto           ~  - vibrato bend
,  - slight palm mute    () - ghost note, sustained note
"  - tremolo note        <> - Trill

Tuning: C# G# E B F# C#

Riff 1A
|-----------------------------------------------|
|-----------------------------------------------|
|-3---------------------------------------------|
|-3---------------------------------------------|
|-1----2--3--3--3----3--2--3----3--2--3--2--3---|
|------0--1--1--1----1--0--1----1--0--1--0--1---|
       .  .  .  .    .  .  .    .  .  .  .  .

Riff 1B
|-----------------------------------------------|
|-----------------------------------------------|
|-3---------------------------------------------|
|-3---------------------------------------------|
|-1----2--3--3--3----3--2--3----3--7--6--4--5---|
|------0--1--1--1----1--0--1----1--5--4--2--3---|
       .  .  .  .    .  .  .    .  .  .  .  .

Riff 2
|---------------------|
|---------------------|
|-3-------------------|
|-3-------------------|
|-1----2----4----5----|
|------0----2----3----|

Riff 3
|------------------------------------------------------------|
|------------------------------------------------------------|
|------------------------------------------------------------|
|----------------------------------------------3----3----3/4-|
|-4--4--5\4------3----4----4/5--4--4--5\4------1----1----1/2-|
|-2--2--3\2--0-0-1--0-2--0-2/3--2--2--3\2--0-0----0----0-----|
             . .    .    .                 . .    .    .

|--------------------------------------------------------------|
|--------------------------------------------------------------|
|--------------------------------------------------------------|
|----------------------------------------------3----3----------|
|-4--4--5\4------3----4----4/5--4--4--5\4------1----1----1/6\1-|
|-2--2--3\2--0-0-1--0-2--0-2/3--2--2--3\2--0-0-----------1/6\1-|
             . .    .    .                 . .

Riff 4
|---------------------------------------------------------------------|
|---------------------------------------------------------------------|
|---------------------------------------------------------------------|
|-------------------------------------------------------------6-6-6-6-|
|-4-4-4-4-5\4-3--3-3-3-3-3-3-6-6-6-4-4-4-4-5\4-3--3-3-3-3-3-3-4-4-4-4-|
|-2-2-2-2-3\2-1--1-1-1-1-1-1-4-4-4-2-2-2-2-3\2-1--1-1-1-1-1-1---------|
  . .            . . . . . .       . .            . . . . . .

Riff 3
Riff 4

Riff 5
|--------------------------------------------------|
|--------------------------------------------------|
|--------------------------------------------------|
|--------------------------------------------------|
|-4-4-4-4-5\4-3--3-3-3-3-3-3-6-6-6-4-4-4-4-5\4-----|
|-2-2-2-2-3\2-1--1-1-1-1-1-1-4-4-4-2-2-2-2-3\2-0-0-|
  . .            . . . . . .       . .         . .

|-------------------------|
|-------------------------|
|-------------------------|
|-5--4--3-----------------|
|-3--2--1--6--5--4--3--2--|
|----------4--3--2--1--0--|

Riff 6
|------------------------------------------|
|------------------------------------------|
|------------------------------------------|
|------------------------------------------|
|-5-\4--4--4--4-/5--5--5-------------------|
|-3-\2--2--2--2-/3--3--3--000-0--000-0-3~--|
                          ... .  ... .

Riff 7A
|--------------------------------------------------------------------|
|--------------------------------------------------------------------|
|--------------------------------------------------------------------|
|--------------------------------------------------------------------|
|-5\4-------4/5----4--4----4/5----4-4---4---4/5--------4ph~----------|
|-3\2--0-0--2/3--0-2--2--0-2/3--0-2-2-0-2-0-2/3--0-0-0-------0-3ph~--|
       . .       .       .      . . . . . .      . . .       .

Riff 7B
|--------------------------------------------------------------------|
|--------------------------------------------------------------------|
|--------------------------------------------------------------------|
|--------------------------------------------------------------------|
|-5\4-------4/5----4--4----4/5----4-4---4---4/5--------------0-4ph-b-|
|-3\2--0-0--2/3--0-2--2--0-2/3--0-2-2-0-2-0-2/3--0-0-0-3ph-b---------|
       . .       .       .      . . . . . .      . . .       .

Solo
|-15p14p12--------18p17p15--------18p17p15--------17p16p14----------|
|---------15p14p12--------18p17p15--------18p17p15--------17p16p14--|
|-------------------------------------------------------------------|
|-------------------------------------------------------------------|
|-------------------------------------------------------------------|
|-------------------------------------------------------------------|

|-14p13p11--------17p16p14--------17p16p14--------15p15p13----------|
|---------14p13p11--------17p16p14--------17p16p14--------16p15p13--|
|-------------------------------------------------------------------|
|-------------------------------------------------------------------|
|-------------------------------------------------------------------|
|-------------------------------------------------------------------|

|-9h11h12p11p9-------------------------------------------|
|-------------12p11p9-------------9-11-------------------|
|--------------------12p11p9h11h12-----13-12~--11*b-10*~-|
|--------------------------------------------------------|
|--------------------------------------------------------|
|--------------------------------------------------------|
* = Artificial Harmonic

|----------------------------------------------------------------------|
|----------------------------------------------------------------------|
|----------------------------------------------------11h13h14-12h14h15-|
|-----------------------------------11h13h14-12h14h15------------------|
|------------------11h13h14-12h14h15-----------------------------------|
|-11h13h14-12h14h15----------------------------------------------------|

|-18p17p15-18p17p15-----------------18p17p15-17p16p14-----------------|
|------------------17p16p14-17p16p14-----------------17p16p14---------|
|------------------------------------------------------------17p16p14-|
|---------------------------------------------------------------------|
|---------------------------------------------------------------------|
|---------------------------------------------------------------------|

|---------------------------------------------------------------------|
|---------------------------------------------------------------------|
|----------------------12h16p12---------10h14p10---------9h13p9-------|
|-----12h16p12-------13--------13-----11--------11-----10------10--12-|
|---13--------13---14------------14-12------------12-11----------11---|
|-14------------14----------------------------------------------------|

|---------------------|
|---------------------|
|-10*~~~~-9*~~-7*~~~~-|
|---------------------|
|---------------------|
|---------------------|
* = Artificial Harmonic

Riff 8 (played under solo)
|----------------------------|
|----------------------------|
|----------------------------|
|----------------------------|
|-5-\4--------4-/5--4ph------|
|-3-\2--0000--2-/3------3ph--|

|----------------------------|
|----------------------------|
|----------------------------|
|----------------------------|
|-5-\4--------4-/5--4ph------|
|-3-\2--0000--2-/3------3ph--|

|-----------------------------------------|
|-----------------------------------------|
|-----------------------------------------|
|-----------------------------------------|
|-5-\4--------4-/5--4ph-------3------4----|
|-3-\2--0000--2-/3------3ph-0-1----0-2----|
                          .      .

Riff 9
|------------------------------------------------------------|
|------------------------------------------------------------|
|----------------------------------------------2"-------3ph~-|
|-----------------4"------------------------------4"-3"------|
|--------------------6"-5h6-2--------------------------------|
|-2-1-0-1-4-3-0-1--------------2-1-0-1-4-3-0-1---------------|
  . . . . . . . .              . . . . . . . .

|--------------------------------------------------------|
|--------------------------------------------------------|
|------------------------------3"-------2"---------------|
|-----------------4"--------------5"-4"----4"-3"-1"------|
|--------------------6"-5h6-2-----------------------3ph~-|
|-2-1-0-1-4-3-0-1----------------------------------------|
  . . . . . . . .

Riff 10
|----------------------------------------------------------------|
|----------------------------------------------------------------|
|----------------------------------------------------------------|
|----------------------------------------------------------------|
|-------------------------------------------------2--5--3--3ph~--|
|-2-1-0-0-4-3-0-0-2-1-0-0-4-3-0-0-2-1-0-0-4-3-0-0-0--3--1--------|
  . . . . . . . . . . . . . . . . . . . . . . . . .  .  .

Riff 9
Riff 10

Riff 11
|--------------------------------------------------------|
|--------------------------------------------------------|
|--------------------1h2p1-------------------0h2p1-------|
|-4"-------0h3h4-2-2--------4"-------0h3h4-2-------4p3p1-|
|----6"-2"---------------------6"-2"---------------------|
|--------------------------------------------------------|

Riff 11B
|----------------------------------------------|
|----------------------------------------------|
|--------------------1h2p1---------------------|
|-4"-------0h3h4-2-2--------3-2-0--------------|
|----6"-2"------------------------3-2-0--------|
|---------------------------------------3-2-0--|
                            . . . . . . . . .

Riff 12
|-----------------------------------------------------------|
|-----------------------------------------------------------|
|-----------------------------------------------------------|
|-------------------3---------------------------------------|
|-5-4-5-4-3---5-4-5-1---5-4-5-3-5-4-5-4-6---6-5-4-2-----3---|
|-3-2-3-2-1---3-2-3-----3-2-3-1-3-2-3-2-4---4-3-2-0---0-1---|
  . . . .     . . .     . . . . . . . . .   . . .     .

|-----------------------------------------------------------|
|-----------------------------------------------------------|
|-----------------------------------------------------------|
|-------------------3---------------------------------------|
|-5-4-5-4-3---5-4-5-1---5-4-5-3-5-4-5-4-6---6-5-4-2-----3---|
|-3-2-3-2-1---3-2-3-----3-2-3-1-3-2-3-2-4---4-3-2-0---0-1---|
  . . . .     . . .     . . . . . . . . .   . . .     .

|-----------------------------------------------------------|
|-----------------------------------------------------------|
|-----------------------------------------------------------|
|-------------------3---------------------------------------|
|-5-4-5-4-3---5-4-5-1---5-4-5-3-5-4-5-4-6---6-5-4-2-----3---|
|-3-2-3-2-1---3-2-3-----3-2-3-1-3-2-3-2-4---4-3-2-0---0-1---|
  . . . .     . . .     . . . . . . . . .   . . .     .

|---------------------------------------------------|
|---------------------------------------------------|
|---------------------------------------------------|
|-------------------3-------------------------------|
|-5-4-5-4-3---5-4-5-1---5-4-5-3-5-4-5-4-6---6-5-3---|
|-3-2-3-2-1---3-2-3-----3-2-3-1-3-2-3-2-4---4-3-1---|
  . . . .     . . .     . . . . . . . . .   . .

Riff 13
|------------------------------------|
|------------------------------------|
|------------------------------------|
|-----------------------------3------|
|-5--4--5--4--3------5--4--5--1------|
|-3--2--3--2--1------3--2--3---------|
  .  .  .  .         .  .  .

|----------------------------------------------------------|
|----------------------------------------------------------|
|----------------------------------------------------------|
|----------------------------------------------------------|
|-5--4--5--3--5--4--5--4--6------6--5--4--2---------3------|
|-3--2--3--1--3--2--3--2--4------4--3--2--0------0--1------|
  .  .  .  .  .  .  .  .  .      .  .  .         .

  Visit MetalTabs.com for more metal tablature