top separator

Home

Forum

What's New

Submit a Tab

FAQ

Links

Contact Us

Link to Us

MetalTabs.com logo

Bands

0-9

A

B

C

D

E

F

G

H

I

J

K

L

M

N

O

P

Q

R

S

T

U

V

W

X

Y

Z

Search

What

Where
 

Darkthrone - "God of disturbance and friction (from Moonfog's compilation "Moonfog 2000: A different perspective")" Guitar Tab

Plain Text Version
More Darkthrone Tabs

Hits: 4138
Rated: 4.00 out of 5 (1 vote)
Updated: 2003-12-28 07:46:27

 

By:

Kalma

sendpm.gif

email.gif

Important note
This tab is available online because we obtained explicit permission from Darkthrone or their label.


#----------------------------------PLEASE NOTE---------------------------------#
#This file is the author's own work and represents their interpretation of the #
#song. You may only use this file for private study, scholarship, or research. #
#Unless specified otherwise, this is NOT an official tab from the band members.#
#------------------------------------------------------------------------------#

  Visit MetalTabs.com for more metal tablature
  
Band: Darkthrone
Album: Can be found from Moonfog's compilation
       "Moonfog 2000: A different perspective".
Song: God of disturbance and friction

Copyright (c) Moonfog
Version 1.0 - 9.11.2003

Transcribed By: Aleksi Stenbacka
Email: Kuollutjakuopattu@hotmail.com


.  - palm mute           /  - slide up to
\  - slide down to       ~  - vibrato
h  - hammer on           b  - Bend
p  - pull off            Suffixes for bend
t  - tap                 f  - full bend    h - half bend
ph - pinched harmonic    q  - quarter bend t - tap bend
*  - see comment         ^  - Hold bend    r release bend
x  - Stuccatto           ~  - vibrato bend
,  - slight palm mute    () - ghost note, sustained note
"  - tremolo note        <> - Trill

Notation: I splitted riffs in different sections so it would look clearer...

Tunning E A D G B E

Riff 1.
|----------------------------------|------------------|-------------------------|
|----------------------------------|------------------|-------------------------|
|----------------------------------|------------------|-------------------------|
|----------------------------------|------------------|-------------------------|
|-3-333-333-333-333-333-333-333-33-|-7-777-777-777-77-|-trill-trill-trill-trill-|
|-1-111-111-111-111-111-111-111-11-|-5-555-555-555-55-|-<5-6>-<4-5>-<3-4>-<2-3>-|

Riff 2.
|-----------------|---------------|-----------------|-----------------|
|-----------------|---------------|-----------------|-----------------|
|-----------------|---------------|-----------------|-----------------|
|-----------------|---------------|-----------------|-----------------|
|-6-6-6-6-6-6-6-6-|-6-7---6-6-5---|-6-6-6-6-6-6-6-6-|-6-2-2-2-2-3-4-5-|
|-4-4-4-4-4-4-4-4-|-4-5---4-4-3---|-4-4-4-4-4-4-4-4-|-4-0-0-0-0-1-2-3-|

Riff 3.
|-----------------------------------|
|-----------------------------------|
|-----------------------------------|
|--------8--------9-----------------|
|-2"-----6-2"-----7-2"-----8"---3"--|
|-0--------0--------0------6----1---|

Ending
|---|
|---|
|---|
|---|
|-2-|
|-0-|

  Visit MetalTabs.com for more metal tablature

bottom separator

Contact Us | Privacy Policy | Disclaimer | Legal Notice
Copyright © 2001-2014 MetalTabs.com. All Rights Reserved.