top separator

Home

Forum

What's New

Submit a Tab

FAQ

Links

Contact Us

Link to Us

MetalTabs.com logo

Bands

0-9

A

B

C

D

E

F

G

H

I

J

K

L

M

N

O

P

Q

R

S

T

U

V

W

X

Y

Z

Search

What

Where
 

Slave Zero - "Last Breath" Guitar Tab

Plain Text Version
More Slave Zero Tabs

Hits: 2426
Rated: 3.00 out of 5 (1 vote)
Updated: 2003-12-28 07:41:32

 

Important note
This tab is available online because we obtained explicit permission from Slave Zero or their label.


#----------------------------------PLEASE NOTE---------------------------------#
#This file is the author's own work and represents their interpretation of the #
#song. You may only use this file for private study, scholarship, or research. #
#Unless specified otherwise, this is NOT an official tab from the band members.#
#------------------------------------------------------------------------------#

  Visit MetalTabs.com for more metal tablature
  
Band:  Slave Zero
Album: The defiant Stand
Song:  Last Breath

Copyright (c)  Defiance Productions 2003
Version 1.0 - October 2003

Transcribed By: Sean Young
Email:          RitualWank666@Yahoo.com


.  - palm mute           /  - slide up to
\  - slide down to       ~  - vibrato
h  - hammer on           b  - Bend
p  - pull off            Suffixes for bend
t  - tap                 f  - full bend    h - half bend
ph - pinched harmonic    q  - quarter bend t - tap bend
*  - see comment         ^  - Hold bend    r release bend
x  - Stuccatto           ~  - vibrato bend
,  - slight palm mute    () - ghost note, sustained note
"  - tremolo note        <> - Trill

Tunning E A D G B E

Notes:
       Another blinder of a song from the defiant stand. Catchy as hell. I can
only figure out the intro at the moment. In time I will try and get the rest of
the song becasue it has some really cool parts. The intro is my favourite and
didn't take me long to figure out. It is so evil you just can't help but love
it. Any corrections please email.

Sean


Intro

Guitar 1

|--2--------5------------2------------0----------0-0-0-0------------|
|--4--------7------------4------------2----------2-2-2-2------------|
|-------------------------------------------------------------------|
|-------------------------------------------------------------------|
|-------------------------------------------------------------------|
|-----2-2---------------------2-2-----------------------------------|

Guitar 2

|-2------2-/--5-------5---2-------2-/--0------0--0-0-0-0------------|
|--4---4--------7---7-------4---4------2----2----2-2-2-2------------|
|----4------------7-----------4--------2--2------2-2-2-2------------|
|-------------------------------------------------------------------|
|-------------------------------------------------------------------|
|-------------------------------------------------------------------|

Last bar ends in F#

|-2------------------------------------------------------------------|
|-4------------------------------------------------------------------|
|-------------------------------------------------------------------|
|-------------------------------------------------------------------|
|-------------------------------------------------------------------|
|-------------------------------------------------------------------|

END

  Visit MetalTabs.com for more metal tablature

bottom separator

Contact Us | Privacy Policy | Disclaimer | Legal Notice
Copyright © 2001-2014 MetalTabs.com. All Rights Reserved.