top separator

Home

Forum

What's New

Submit a Tab

FAQ

Links

Contact Us

Link to Us

MetalTabs.com logo

Bands

0-9

A

B

C

D

E

F

G

H

I

J

K

L

M

N

O

P

Q

R

S

T

U

V

W

X

Y

Z

Search

What

Where
 

My Dying Bride - "The Light at the End of the World" Guitar Tab

Plain Text Version
More My Dying Bride Tabs

Hits: 6777
Rated: 5.00 out of 5 (5 votes)
Updated: 2003-12-28 07:40:25

 

By:

Father Death

sendpm.gif

email.gif

Important note
This tab is available online because we obtained explicit permission from My Dying Bride or their label.


#----------------------------------PLEASE NOTE---------------------------------#
#This file is the author's own work and represents their interpretation of the #
#song. You may only use this file for private study, scholarship, or research. #
#Unless specified otherwise, this is NOT an official tab from the band members.#
#------------------------------------------------------------------------------#

  Visit MetalTabs.com for more metal tablature
  
Band:  MY DYING BRIDE
Album: The Light at the End of the World
Song:  The Light at the End of the World

Transcribed by:	Chris Humeniuk
Email:  father_death_666@hotmail.com

Tuning:	1/2 step down

Keys:
 / \ - slide
  h  - hammer on
  p  - pull off
 ___ - palm mute
  x  - mute


RIFF A:
(Gtr 1)
|-------------------------------------------|
|-------------------------------------------|
|-------------------------------------------|
|-3------3---------3------------3--3--------|
|-3---------4---------4/6-6-----------------|
|-1----1---------1------------1-------------| 4x

(Gtr 2)
|-------------------------------------------
|-------------------------------------------
|-------------------------------------------
|-------------------------------------------
|-3------3--1------1--4/6-6-----------------
|---------------------2/4-4---4-4--1--------

 -------------------------------------------------|
 -------------------------------------------------|
 -------------------------------------------------|
 --------3--3----3-3-/6-5-3-6-5-5---5-6--3--------|
 -------------------------------------------------|
 -1----1------------------------------------------| 2x


RIFF Ba:

|---------------------------------------------------------------------------|
|---------------------------------------------------------------------------|
|---------------------------------------------------------------------------|
|--------------------------------------------------------------6--3---------|
|-4------4--3------1--1h3-3--3---------------1------1/4-4-------------------|
|-------------------------------4~-1------1---------------------------------|

(Gtr 1)
|---------------------------------------------------------------------------|
|---------------------------------------------------------------------------|
|---------------------------------------------------------------------------|
|--------------------------------------------------------------6--3---------|
|-4------4--3------1--1h3-3--3---------------1------1/4-4-------------------|
|-------------------------------4~-1------1---------------------------------|2x

(Gtr 2)
|------------------------------------------------------
|------------------------------------------------------
|------------------------------------------------------
|-----/6-5-3-5h6-3---6-5-3-5h6-6/8-6\5-6p5-3/5-3\1/3---
|-4----------------------------------------------------
|------------------------------------------------------

 -----------------------------------------------------
 -----------------------------------------------------
 -----------------------------------------------------
 -1-1-1-1h3-3-3---1-3-/8-5--5h6p5-8-5--------8~--10~--
 -------------------------------------8---------------
 -----------------------------------------------------

 ------------------------------------------------------
 ------------------------------------------------------
 ------------------------------------------------------
 -----/6-5-3-5h6-3---6-5-3-5h6-6/8-6\5-6p5-3/5-3\1/3---
 -4----------------------------------------------------
 ------------------------------------------------------

 --------------------------------------------------------------|
 --------------------------------------------------------------|
 --------------------------------------------------------------|
 -1-1-1-1h3-3-3---1-3-/8-5--5h6p5-8-5-----6h8-8~----8/10-10~---|
 -------------------------------------8------------------------|
 --------------------------------------------------------------|

(Gtr 1 + 2)
|---------------------------------------------------------------------------|
|---------------------------------------------------------------------------|
|---------------------------------------------------------------------------|
|--------------------------------------------------------------6--3---------|
|-4------4--3------1--1h3-3--3---------------1------1/4-4-------------------|
|-------------------------------4~-1------1---------------------------------|


RIFF C:

|-------------------------------------------|
|-------------------------------------------|
|-------------------------------------------|
|---------------------------------6------2--|
|-------------------2--2--2-2-2-2-4------0--|
|-0-4-3-1-4--3--1p0-0--0--0-0-0-0----0-0----|
  _______           _____________    ___

|-------------------------------------------|
|-------------------------------------------|
|-------------------------------------------|
|---------------------------------6--\--2---|
|---------------------------------4--\--0---|
|-------------------------------------------|

|-------------------------------------------|
|-------------------------------------------|
|-------------------------------------------|
|---------------------------------6------2--|
|-------------------2--2--2-2-2-2-4------0--|
|-0-4-3-1-4--3--1p0-0--0--0-0-0-0----0-0----| 4x
  _______           _____________    ___


RIFF A


RIFF Bb:

GTR 1 - Ba

(Gtr 2)
|------------------------------------------------------
|------------------------------------------------------
|------------------------------------------------------
|-----/6-5-3-5h6-3---6-5-3-5h6-6/8-6\5-6p5-3/5-3\1/3---
|-4----------------------------------------------------
|------------------------------------------------------

 -------------------------------------------------------------
 -------------------------------------------------------------
 -------------------------------------------------------------
 -1-1-1-1h3-1h3---1-3-/8-5--5h6p5-8-5-----6h8-8~--8/10-10~----
 -------------------------------------8-----------------------
 -------------------------------------------------------------

 ------------------------------------------------------
 ------------------------------------------------------
 ------------------------------------------------------
 -----/6-5-3-5h6-6---6-5-3-5h6-6/8-6\5-6p5-3/5-3\1/3---
 -4----------------------------------------------------
 ------------------------------------------------------

 --------------------------------------------------------------|
 --------------------------------------------------------------|
 --------------------------------------------------------------|
 -1-1-1-1h3-3-3---1-3-/8-5--5h6p5-8-5------8/10-10~--10\8-10~--|
 -------------------------------------8------------------------|
 --------------------------------------------------------------|


INTERLUDE:
(Gtr 1)
|-----------------------------------------------------------------
|-----------------------------------------------------------------
|-----------------------------------------------------------------
|-----------------------------------------------------------------
|---4-1-3---4-1-3---4-1-3---4-1-3---3-0-2---3-0-2---3-0-2---3-0-2-
|-1-------1-------1-------1-------0-------0-------0-------0-------
  _______________________________________________________________

(Gtr 2)
|-----------------------------------------------------------------
|-----------------------------------------------------------------
|---------------------------------9-------------------------------
|-(3)-----------------------------x-------------------------------
|---------------------------------7-------------------------------
|-----------------------------------------------------------------

(Gtr 1 + 2)
 ------------------------------------|
 ------------------------------------|
 ------------------------------------|
 ------------------------------------|
 ---4-1-3---4-1-3---4-1-3---4-1-3----|
 -1-------1-------1-------1-------0--|
  _______________________________


INT. A:
(Gtr 1)
|-----------------------------------------------------------------|
|-----------------------------------------------------------------|
|-----------------------------------------------------------------|
|-----------------------------------------------------------------|
|---4-1-3---4-1-3---4-1-3---4-1-3---3-0-2---3-0-2---3-0-2---3-0-2-|
|-1-------1-------1-------1-------0-------0-------0-------0-------|
  _______________________________________________________________

(Gtr 2)
|-----------------------------------------------------------------|
|-----------------------------------------------------------------|
|-----------------------------------------------------------------|
|---6-3-5---6-3-5---6-3-5---6-3-5---5-2-4---5-2-4---5-2-4---5-2-4-|
|-3-------3-------3-------3-------2-------2-------2-------2-------|
|-----------------------------------------------------------------| 2x
  _______________________________________________________________

INT. B:
(Gtr 1)
|-----------------1-------------------------------0---------------|
|-----------------1-------------------------------0---------------|
|-----------------------------------------------------------------|
|-3-------------------------------2-------------------------------|
|-3-------------------------4-1-3-2-------------------------3-0-2-|
|-1-----------------------1-------0-----------------------0-------|
                          _______                         _______

(Gtr 2)
|-----------------------------------------------------------------|
|-----------------------------------------------------------------|
|-----------------------------------------------------------------|
|-3-------------------------6-3-5-2-------------------------5-2-4-|
|-3-----------------------3-------2-----------------------2-------|
|-1-------------------------------0-------------------------------| 4x
                          _______                         _______

INT. A - 2x

INT. C:
|-------------------------------------|
|-------------------------------------|
|-------------------------------------|
|-5----5--3---2--3--5----6--4---7--8--|
|-3----5--1---0--1--3----6--2---5--6--|
|-3----3--1---0--1--3----4--2---5--6--| 2x

INT. A - 2x

INT. C - 2x

INT. A - 2x

INT. B - 4x

INT. A - 2x


RIFF A


OUTRO:

GTR 1 - Ba

(Gtr 2)
|------------------------------------------------------
|------------------------------------------------------
|------------------------------------------------------
|-----/6-5-3-5h6-3---6-5-3-5h6-6/8-6\5-6p5-3/5-3\1/3---
|-4----------------------------------------------------
|------------------------------------------------------

 -----------------------------------------------------------------------
 -----------------------------------------------------------------------
 -----------------------------------------------------------------------
 -1-1-1-1h3-1h3---1-3-/8-5--5h6p5-8-5-----6h8-8~--8/10-10\8-8~--8\6-6~--
 -------------------------------------8---------------------------------
 -----------------------------------------------------------------------

 ------------------------------------------------------
 ------------------------------------------------------
 ------------------------------------------------------
 -----/6-5-3-5h6-3---6-5-3-5h6-6/8-6\5-6p5-3/5-3\1/3---
 -4----------------------------------------------------
 ------------------------------------------------------

 ------------------------------------------------------------------
 ------------------------------------------------------------------
 ------------------------------------------------------------------
 -1-1-1-1h3-3-3---1-3-/8-5--5h6p5-8-5-------8/10-10~--10\8-8\6-6~--
 -------------------------------------8----------------------------
 ------------------------------------------------------------------

 -----------------------------------------------------------------------------|
 -----------------------------------------------------------------------------|
 -----------------------------------------------------------------------------|
 --------------------------------------------------------------6--------------|
 -4------4--3------1--1h3-3--3---------------1------1/4-4---------------------|
 -------------------------------4~-1------1-----------------------------------|

  Visit MetalTabs.com for more metal tablature

bottom separator

Contact Us | Privacy Policy | Disclaimer | Legal Notice
Copyright © 2001-2014 MetalTabs.com. All Rights Reserved.