top separator

Home

Forum

What's New

Submit a Tab

FAQ

Links

Contact Us

Link to Us

MetalTabs.com logo

Bands

0-9

A

B

C

D

E

F

G

H

I

J

K

L

M

N

O

P

Q

R

S

T

U

V

W

X

Y

Z

Search

What

Where
 

Empyrium - "When shadows grow longer" Guitar Tab

Plain Text Version
More Empyrium Tabs

Hits: 6485
Rated: 3.60 out of 5 (5 votes)
Updated: 2004-05-19 10:34:21

 

By:

Darkenelf

sendpm.gif

email.gif

Important note
We did our best to reach Empyrium and ask for their permission to publish this tab. Unfortunately they did not respond to our requests or we could not find a way to contact them. This tab is available online until Empyrium tells us to take it down.


#----------------------------------PLEASE NOTE---------------------------------#
#This file is the author's own work and represents their interpretation of the #
#song. You may only use this file for private study, scholarship, or research. #
#Unless specified otherwise, this is NOT an official tab from the band members.#
#------------------------------------------------------------------------------#

  Visit MetalTabs.com for more metal tablature
  
Band: Empyrium
Album: Songs of Moors and Misty Fields
Song: When Shadows grow longer
Tabbed by: Martijn Wietsma
Email: northerland@yahoo.co.uk
Tab Date: 08-11-2003
re-tabbed at: 09-12-2003

Standard E Tuning

keyboard part 1a
|-------------------------5-5--------------------------------|
|-----------------------------8-8--6h8p6p5-------------------|
|-7-7--5-5----5-------5--------------------------------------|
|-----------8---8-7h8----------------------------------------|
|------------------------------------------------------------|
|------------------------------------------------------------|

keyboard part 1b
|------------------------------------------------------------|
|------------------------------------------------------------|
|-7--5--7------------7---------------------------------------|
|----------7---3--5-----7------------------------------------|
|------------------------------------------------------------|
|------------------------------------------------------------|

2nd part
|------------------------------------------------------------|
|------------------------------------------------------------|
|-77--------------------------77-----------------------------|
|----55---5-----7-5----5---------55---5-----7-5---5---7------|
|-------8---87------8----87---------8---87------8---8--------|
|------------------------------------------------------------|

(end of song)

  Visit MetalTabs.com for more metal tablature

bottom separator

Contact Us | Privacy Policy | Disclaimer | Legal Notice
Copyright © 2001-2014 MetalTabs.com. All Rights Reserved.