top separator

Home

Forum

What's New

Submit a Tab

FAQ

Links

Contact Us

Link to Us

MuSpy.com

MetalTabs.com logo

Bands

0-9

A

B

C

D

E

F

G

H

I

J

K

L

M

N

O

P

Q

R

S

T

U

V

W

X

Y

Z

Search

What

Where
 

Empyrium - "Mourners" Guitar Tab

Plain Text Version
More Empyrium Tabs

Hits: 5660
Rated: 4.33 out of 5 (3 votes)
Updated: 2003-12-28 07:30:47

 

By:

Darkenelf

sendpm.gif

email.gif

Important note
We did our best to reach Empyrium and ask for their permission to publish this tab. Unfortunately they did not respond to our requests or we could not find a way to contact them. This tab is available online until Empyrium tells us to take it down.


#----------------------------------PLEASE NOTE---------------------------------#
#This file is the author's own work and represents their interpretation of the #
#song. You may only use this file for private study, scholarship, or research. #
#Unless specified otherwise, this is NOT an official tab from the band members.#
#------------------------------------------------------------------------------#

  Visit MetalTabs.com for more metal tablature
  
Band: Empyrium
Album: Songs of Moors and Misty Fields
Song: Mourners
Tabbed by: Martijn Wietsma
Email: northerland@yahoo.co.uk
Tab Date: 08-11-2003

Standard E Tuning

riff A (flute intro)
|---------------------------------------------------------------|
|---------------------------------------8~----------------------|
|-9-7-------5h7-7-5-5--5------------7~------10~--9-7------------|
|-----/10----------------/9----9h10-----------------------------|
|---------------------------------------------------------------|
|---------------------------------------------------------------|
							(2x)
repeat riff A 4x (for guitar now)

riff B (0:42) (under riff A)
|---------------------------------------------------------------|
|---------------------------------------------------------------|
|---------------------------------------------------------------|
|-2-----------------------------------5---5-7---5~-/7~----------|
|---5-3~--5h7-7h8-10p8-8p7-7-----3----3---3-5----------777777---|
|-----------------------------00---00---0--------------555555---|
                              xx   xx   x              xxx x
riff C (1:07) (under riff A)
|---------------------------------------------------------------|
|---------------------------------------------------------------|
|---------------------------------------------------------------|
|----2~-3--2-2~----------5---5-7---5~-/7~-----------------------|
|-3~----------------3----3---3-5----------777777----------------|
|----------------00---00---0--------------555555----------------|
                 xx   xx   x              xxx x

riff D (1:25) (under riff A)
|---------------------------------------------------------------|
|---------------------------------------------------------------|
|---------------------------------------------------------------|
|-5-------------2-------------7---------------------------------|
|-3-------------2-------------5---------------7-----------------|
|---------------0-----------------------------5-----------------|
							(2x)
riff E (2:06)
|---------------------------------------------------------------|
|---------------------------------------------------------------|
|---------------------------------------------------------------|
|---------------------------2------2------2------22-------------|
|-7------7------7------77---2------2------2------22-------------|
|-5-555--5-555--5-555--55---0-000--0-000--0-000--00-------------|

|---------------------------------------------------------------|
|---------------------------------------------------------------|
|---------------------------------------------------------------|
|---------------------------7------7------7------77-------------|
|-5------5------5------55---5-555--5-555--5-555--55-------------|
|-3-333--3-333--3-333--33---------------------------------------|
							(2x)

riff F (2:45)
|---------------------------------------------------------------|
|---------------------------------------------------------------|
|---------------------------------------------------------------|
|-----------------------------2---------------------------------|
|-7---------------------------2---------------------------------|
|-5-55-55-55-55-55-55-55-55---0-00-00-00-00-00-00-00-00---------|
    xx xx xx xx xx xx xx xx     xx xx xx xx xx xx xx xx

|---------------------------------------------------------------|
|---------------------------------------------------------------|
|---------------------------------------------------------------|
|-----------------------------7---------------------------------|
|-5---------------------------5-55-55-55-55-55-55-55-55---------|
|-3-33-33-33-33-33-33-33-33-------------------------------------|
    xx xx xx xx xx xx xx xx     xx xx xx xx xx xx xx xx	(2x)

repeat riff A (flute) 2x (3:26)
repeat riff B 2x / A (guitar) 4x (4:05)
repeat riff E 2x (4:47)
repeat riff F 2x (5:26)

riff G (6:03)
|---------------------------------------------------------------|
|---------------------------------------------------------------|
|-2~-----2~--2/5-4~-----2~--------------------------------------|
|----/5-------------/5------------------------------------------|
|----------------------------7777-7-77-7-77-77-77---------------|
|----------------------------5555-5-55-5-55-55-55---------------|
                             xxxx   xx   xx    x	(2x)

riff H (6:42)
|--------------------------------7~-----------------------------|
|---------------------------------------------------------------|
|-2~-----2~----------------4~-----------------------------------|
|----/5------5\3-------5/7--------------------------------------|
|----------------(/5)-------------------------------------------|
|---------------------------------------------------------------|
							(2x)
riff I (solo) (7:18)
|---------------------------------10----------------------------|
|-10~--10h12h13p12-13-10-(12h13)-----13-12~--12-----10~---------|
|-----------------------------------------------12~-------------|
|---------------------------------------------------------------|
|---------------------------------------------------------------|
|---------------------------------------------------------------|
							(2x)
repeat riff F under riff I 2x

riff J
|---------------------------------------------------------------|
|---------------------------------------------------------------|
|---------------------------------------------------------------|
|---------------------------------5---5-7---5~-/7~--------------|
|-3~--5h7-7h8-10p8-8p7-7-----3----3---3-5-----------777777------|
|-------------------------00---00---0---------------555555------|
                          xx   xx   x               xxx x

|---------------------------------------------------------------|
|---------------------------------------------------------------|
|---------------------------------------------------------------|
|----2~-3--2-2~----------5---5-7---5~-/7~-----------------------|
|-3~----------------3----3---3-5----------777777----------------|
|----------------00---00---0--------------555555----------------|
                 xx   xx   x              xxx x
riff K (8:35)
|-------------------------------------------------------------------|
|-------------------------------------------------------------------|
|-------------------------------------------------------------------|
|-----------------------------------2------2-----2---2------2-----2-|
|-7------7-----7---7------7-----7---2------2-----2---2------2-----2-|
|-5-5555-5-555-5---5-5555-5-555-5---0-0000-0-000-0---0-0000-2-000-0-|
    xxxx   xxx       xxxx   xxx       xxxx   xxx       xxxx   xxx

|-------------------------------------------------------------------|
|-------------------------------------------------------------------|
|-------------------------------------------------------------------|
|-----------------------------------7------7-----7---7------7-----7-|
|-5------5-----5---5------5-----5---5-5555-5-555-5---5-5555-5-555-5-|
|-3-3333-3-333-3---3-3333-3-333-3-----------------------------------|
    xxxx   xxx       xxxx   xxx       xxxx   xxx       xxxx   xxx
							(2x)

  Visit MetalTabs.com for more metal tablature

bottom separator

Contact Us | Privacy Policy | Disclaimer | Legal Notice
Copyright © 2001-2014 MetalTabs.com. All Rights Reserved.