top separator

Home

Forum

What's New

Submit a Tab

FAQ

Links

Contact Us

Link to Us

MuSpy.com

MetalTabs.com logo

Bands

0-9

A

B

C

D

E

F

G

H

I

J

K

L

M

N

O

P

Q

R

S

T

U

V

W

X

Y

Z

Search

What

Where
 

Gorerotted - "Fuck Your Arse With Broken Glass" Guitar Tab

Plain Text Version
More Gorerotted Tabs

Hits: 4083
Rated: 2.33 out of 5 (3 votes)
Updated: 2003-12-28 07:29:12

 

By:

shredder

sendpm.gif

email.gif

Important note
This tab is available online because we obtained explicit permission from Gorerotted or their label.


#----------------------------------PLEASE NOTE---------------------------------#
#This file is the author's own work and represents their interpretation of the #
#song. You may only use this file for private study, scholarship, or research. #
#Unless specified otherwise, this is NOT an official tab from the band members.#
#------------------------------------------------------------------------------#

  Visit MetalTabs.com for more metal tablature
  
Band:	Gorerotted
Album:	Split Your Guts Vol. 1
Song:	Fuck Your Arse With Broken Glass

Copyright  Deep Send Records 2002

Transcribed By:	Joe Holly
E-mail:		rivers_of_gore666@yahoo.com

.  - palm mute           /  - slide up to
\  - slide down to       ~  - vibrato
h  - hammer on           b  - Bend
p  - pull off            Suffixes for bend
t  - tap                 f  - full bend    h - half bend
ph - pinched harmonic    q  - quarter bend t - tap bend
*  - see comment         ^  - Hold bend    r release bend
x  - Stuccatto           ~  - vibrato bend
,  - slight palm mute    () - ghost note, sustained note
"  - tremolo note        <> - Trill

Tuning: D G C F A D

Riff 1
|---------------------------------------------------|
|---------------------------------------------------|
|---------------------------------------------------|
|----3/4\3------------5/6\5-----3/4\3---------5--6--|
|-2--1/2\1--2--4/5\4--3/4\3--2--1/2\1---3--4--3--4--|
|-0---------0--2/3\2---------0----------1--2--------|
  .         .                .          .  .

Riff 2
|----------------------------------------------------|
|----------------------------------------------------|
|----------------------------------------------------|
|----3/4\3--------------------3/4\3-----------5/6\5--|
|-2--1/2\1--2--2--2--2--2--2--1/2\1--2--2--2--3/4\3--|
|-0---------0--0--0--0--0--0---------0--0--0---------|
  .         .  .  .  .  .  .         .  .  .

Riff 1

Riff 3
|-----------------------------|
|-----------------------------|
|-----------------------------|
|--------5/6\5---------5/6\5--|
|-4/5\4--3/4\3--4/5\4--3/4\3--|
|-2/3\2---------2/3\2---------|

Riff 4
|-------------------------------------------------|
|-------------------------------------------------|
|-------------------------------------------------|
|-------------------------------------------------|
|-------------------------------------------------|
|-3h5p3-4h6p4-5h7p5-6h8p6-3--5--4--6--5--7--6--8--|
                          .  .  .  .  .  .  .  .

|-------------------------------------------------|
|-------------------------------------------------|
|-------------------------------------------------|
|-------------------------------------------------|
|-------------------------------------------------|
|-3h5p3-4h6p4-5h7p5-6h8p6-3--5--4--6--5--7--6--8--|
                          .  .  .  .  .  .  .  .

|-------------------------------------------------|
|-------------------------------------------------|
|-------------------------------------------------|
|-------------------------------------------------|
|-------------------------------------------------|
|-3h5p3-4h6p4-5h7p5-6h8p6-3--5--4--6--5--7--6--8--|
                          .  .  .  .  .  .  .  .

|-----------------------|
|-----------------------|
|-----------------------|
|-----------------------|
|-----------------------|
|-3h5p3-4h6p4-5h7p5-6/8-|

Riff 3
Riff 4

Riff 5
|-------------------------------------------------|
|-------------------------------------------------|
|-------------------------------------------------|
|-------------------------------------------------|
|-7-----5-----7-----5-----7-----5-----7-----5-----|
|----0-----0-----0-----0-----0-----0-----0-----0--|
     .     .     .     .     .     .     .     .

Riff 6
|---------------------------------|
|---------------------------------|
|---------------------------------|
|---------------------------------|
|-8p7-7p6-6p5-5p4-8p7-7p6-6p5-5p4-|
|---------------------------------|

Riff 7
|-----------------------------------------------|
|-----------------------------------------------|
|-----------------------------------------------|
|-----------------------------------------------|
|-------5--4--------6--6-\5--5--7--6--5--5--/7--|
|-4--5--------4--5------------------------------|
  .  .  .  .  .  .

Riff 8
|-------------------------------------------|
|-------------------------------------------|
|-------------------------------------------|
|-------------------------------------------|
|-------7"-0"-6"------------7"-0"-6"---3"---|
|-4"-5"---------------4"-5"-----------------|

Riff 4

Riff 9
|-------------------------------------------------|
|-------------------------------------------------|
|-------------------------------------------------|
|-------------------------------------------------|
|-------------------------------------------------|
|-3h5p3-4h6p4-5h7p5-6h8p6-3h5p3-4h6p4-5h7p5-6h8p6-|

Riff 10
|-------------------------------------------------|
|-------------------------------------------------|
|-------------------------------------------------|
|-------------------------------------------------|
|-------------------------------------------------|
|-3--5--4--6--5--7--6--8--3--5--4--6--5--7--6--8--|
  .  .  .  .  .  .  .  .  .  .  .  .  .  .  .  .

End
|-----|
|-----|
|-----|
|-----|
|-2---|
|-0---|

  Visit MetalTabs.com for more metal tablature

bottom separator

Contact Us | Privacy Policy | Disclaimer | Legal Notice
Copyright © 2001-2014 MetalTabs.com. All Rights Reserved.