top separator

Home

Forum

FAQ

Contact Us

Link to Us

MetalTabs.com logo

Bands

0-9

A

B

C

D

E

F

G

H

I

J

K

L

M

N

O

P

Q

R

S

T

U

V

W

X

Y

Z

Katatonia - "Deadhouse" Guitar Tab

Plain Text Version
More Katatonia Tabs

Hits: 8101
Rated: 4.14 out of 5 (7 votes)
Updated: 2003-12-28 07:16:08


#----------------------------------PLEASE NOTE---------------------------------#
#This file is the author's own work and represents their interpretation of the #
#song. You may only use this file for private study, scholarship, or research. #
#Unless specified otherwise, this is NOT an official tab from the band members.#
#------------------------------------------------------------------------------#

  Visit MetalTabs.com for more metal tablature
  
KATATONIA "Deadhouse"
From "Discouraged Ones" (1997)
Copyright (C) 1997 Avantgarde Music
~~~~~~~~~~~~~~~~~~~~~~~~~~~~~~~~~~~
	Transcribed by Erik Grahn J. <erik[@]nasheim[.]tk>

	Numbers are written with hexadecimal notation: A equals 10, B = 11
	and so on.

	h = hammer-on
	p = pull-off
	/ = slide
	~ = vibrato

	This is the first song I've ever transcribed and written proper
	tablature of -- there could be errors here and there but generally
	this sounds fine to me. Song structure is simple and should be
	obvious -- listen to the song. First occurrences of each part are
	listed in parantheses. E-mail corrections or comments.


Part 1 (00:00 - 00:34)
~~~~~~~~~~~~~~~~~~~~~~
	Guitar 1 (distorted):

	D# |-----------------------------------------------------------------|
	A# |-----------------------------------------------------------------|
	F# |-9-9-9-9-9-9-9-9-9-9-9-9-9-9-9-9-7-7-7-7-7-7-7-7-7-7-7-7-7-7-7-7-|
	C# |-9-9-9-9-9-9-9-9-9-9-9-9-9-9-9-9-7-7-7-7-7-7-7-7-7-7-7-7-7-7-7-7-|
	G# |-7-7-7-7-7-7-7-7-7-7-7-7-7-7-7-7-5-5-5-5-5-5-5-5-5-5-5-5-5-5-5-5-|
	D# |-----------------------------------------------------------------|

	D# |-----------------------------------------------------------------|
	A# |-----------------------------------------------------------------|
	F# |-------------------------------5-5-------------------------------|
	C# |-7-7-7-7-7-7-7-7-7-7-7-7-7-7-7-5-5-2-2-2-2-2-2-2-2-2-2-2-2-2-2-2-|
	G# |-7-7-7-7-7-7-7-7-7-7-7-7-7-7-7-3-3-2-2-2-2-2-2-2-2-2-2-2-2-2-2-2-|
	D# -5-5-5-5-5-5-5-5-5-5-5-5-5-5-5-----0-0-0-0-0-0-0-0-0-0-0-0-0-0-0-|

	Guitar 2 (distorted):

	D# |-----------------------------------------------------------------|
	A# |-----------------------------------------------------------------|
	F# |-----------------------------------------------------------------|
	C# |-9-9-9-9-9-9-9-9-9-9-9-9-9-9-9-9---------------------------------|
	G# |---------------------------------9-9-9-9-9-9-9-9-9-9-9-A-A-A-A-A-|
	D# |-----------------------------------------------------------------|

	D# |-----------------------------------------------------------------|
	A# |-----------------------------------------------------------------|
	F# |-----------------------------------------------------------------|
	C# |-----------------------------------------------------------------|
	G# |-7-7-7-7-7-7-7-7-7-7-7-7-7-7-7-A-A-A-A-9-9-7-7-7-7-7-7-7-7-7-7-7-
	D# |-----------------------------------------------------------------|

	Guitar 3 (distorted):

	D# |-----------------------------------------------------------------|
	A# |-8-8-8-8-8-8-8-8-8-8-8-7-7-7-7-7-7-7-7-7-7-7-7-7-7-7-7-7-7-7-7-7-|
	F# |-9-9-9-9-9-9-9-9-9-9-9-9-9-9-9-9-7-7-7-7-7-7-7-7-7-7-7-7-7-7-7-7-|
	C# |-----------------------------------------------------------------|
	G# |-----------------------------------------------------------------|
	D# |-----------------------------------------------------------------|

	D# |-----------------------------------------------------------------|
	A# |-5-5-5-5-5-5-5-5-5-5-5-5-5-5-5-5-5-5-5-5-5-5-5-5-5-5-5-5-5-5-5-5-|
	F# |-5-5-5-5-5-5-5-5-5-5-5-5-5-5-5-5-4-4-4-4-4-4-4-4-4-4-4-4-4-4-4-4-|
	C# |-----------------------------------------------------------------|
	G# |-----------------------------------------------------------------|
	D# |-----------------------------------------------------------------|


Part 2 (00:34 - 00:43)
~~~~~~~~~~~~~~~~~~~~~~
	Guitar 1 (distorted):

	D# |-----------------------------------------------------------------|
	A# |-----------------------------------------------------------------|
	F# |-9-9-----7-7-----------------------------------------------------|
	C# |-9-9-----7-7-----7-7-7-7-7-7-7-9-A-A-A-5-5-3-3-3-3-3-3-3-3-3-3-3-|
	G# |-7-7-----5-5-----7-7-7-7-7-7-7-9-A-A-A-5-5-3-3-3-3-3-3-3-3-3-3-3-|
	D# |-----------------5-5-5-5-5-5-5-7-8-8-8-3-3-1-1-1-1-1-1-1-1-1-1-1-|

	Guitar 2 (distorted):
	D# |-----------------------------------------------------------------|
	A# |-----------------------------------------------------------------|
	F# |-C-------B------/5~----------------------------------------------|
	C# |-----------------------------------------------------------------|
	C# |-----------------------------------------------------------------|
	D# |-----------------------------------------------------------------|


Part 3 (00:43 - 01:17)
~~~~~~~~~~~~~~~~~~~~~~
	Guitar 1 (clean w/reverb & delay):

	D# |-----------------------------------------------------------------|
	A# |-----------------------------------------------------------------|
	F# |-----C---C---C---C---C---C---C-----------------------------------|
	C# |-9/A---A---A---A---A---A---A---A-C---C---C---C-------------------|
	G# |-----------------------------------A---A---A---A-C---C---C---C---|
	D# |---------------------------------------------------A---A---A---A-|


Part 4 (03:09 - 03:43)
~~~~~~~~~~~~~~~~~~~~~~
	Guitar 1 (clean):

	D# |-----------------------------------------------------------------|
	A# |-----------------------------------------------------------------|
	F# |-----4----------------7-----5--------4----------------7-----5----|
	C# |---5----------------5-----5--------5----------------5-----5------|
	G# |-7----------------6-----6--------7----------------6-----6--------|
	D# |-----------------------------------------------------------------|

	Guitar 2 (clean w/reverb & delay -- low gain, all notes won't be heard):

	D# |-2p0h2p0h2p0h2p0h2p0h2p0h2p0h2p0h--------------------------------|
	A# |---------------------------------3p1h3p1h3p1h3p1h3p1h3p1h3p1h3p1h|
	F# |-----------------------------------------------------------------|
	C# |-----------------------------------------------------------------|
	G# |-----------------------------------------------------------------|
	D# |-----------------------------------------------------------------|


Ending: (04:26 - 04:34)
~~~~~~~~~~~~~~~~~~~~~~~
	Guitars 1 & 2 (distorted):

	D# |-----------------------------------------------------------------|
	A# |-----------------------------------------------------------------|
	F# |-----------------------------------------------------------------|
	C# |-2---------------------------------------------------------------|
	G# |-2-let ring------------------------------------------------------|
	D# |-0---------------------------------------------------------------|

  Visit MetalTabs.com for more metal tablature

bottom separator

Contact Us | Privacy Policy | Disclaimer
Copyright © 2001-2014 MetalTabs.com. All Rights Reserved.