top separator

Home

Forum

What's New

Submit a Tab

FAQ

Links

Contact Us

Link to Us

MetalTabs.com logo

Bands

0-9

A

B

C

D

E

F

G

H

I

J

K

L

M

N

O

P

Q

R

S

T

U

V

W

X

Y

Z

Search

What

Where
 

My Dying Bride - "The Night He Died" Guitar Tab

Plain Text Version
More My Dying Bride Tabs

Hits: 4886
Rated: 5.00 out of 5 (1 vote)
Updated: 2003-12-28 07:10:55

 

By:

Father Death

sendpm.gif

email.gif

Important note
This tab is available online because we obtained explicit permission from My Dying Bride or their label.


#----------------------------------PLEASE NOTE---------------------------------#
#This file is the author's own work and represents their interpretation of the #
#song. You may only use this file for private study, scholarship, or research. #
#Unless specified otherwise, this is NOT an official tab from the band members.#
#------------------------------------------------------------------------------#

  Visit MetalTabs.com for more metal tablature
  
Band:  MY DYING BRIDE
Album: The Light at the End of the World
Song:  The NIght He Died

Transcribed by:	Chris Humeniuk
Email:  father_death_666@hotmail.com

Tuning:	1.5 steps down

Keys:
 / \ - slide
 < > - pinch harmonic
 ___ - palm mute
  h  - hammer on
  p  - pull off


INTRO:

|-----------------------------------------------------------
|-----------------------------------------------------------
|-7/9--9--9--10-9--9-9--9--9--7/9--9--9---------------------
|-7/9--9--9--10-9--9-9--9--9--7/9--9--9---------------------
|-5/7--7--7---8-7--7-7--7--7--5/7--7--7--7-6-------0-2-<3>~-
|-5/7--7--7---8-7--7-7--7--7--5/7--7--7-------8-7-----------

 -----------------------------------------------------------|
 -----------------------------------------------------------|
 -7/9--9--9--10-9--9-9--------7/9--9--9---------------------|
 -7/9--9--9--10-9--9-9--9--9--7/9--9--9---------------------|
 -5/7--7--7---8-7--7-7--7--7--5/7--7--7--7-6-------0-2-<3>~-|
 -5/7--7--7---8-7--7-7--7--7--5/7--7--7-------8-7-----------| 2x
                        _____


RIFF A:
(Gtr 1)
|-----------------------------------------------------------------|
|-----------------------------------------------------------------|
|-----------------------------------------------------------------|
|---------5---------------7-------4/5-----5---------------3-2-3---|
|-4/7-7-7-7-7-7-7-5-5-5-5-5-5-5-5-2/3-3-3-3-3-3-2-3-2-3-----------|
|-----------------------------------------------------------------|
      ___   _____________   _____     ___   ___

(Gtr 2)
|-----------------------------------------------------------------|
|-----------------------------------------------------------------|
|-----------------------------------------------------------------|
|---------9---------------7---------------5-----------------------|
|-7-7-7-7-7-7-7-7-5-5-5-5-5-5-5-5-3-3-3-3-3-3-3-3-3-3-3-3-3-3-3-3-|
|-----------------------------------------------------------------| 4x
  _______   _____________   _____________   _____________________


RIFF Ba:
(Gtr 1)
|-----------------------------------------------------------
|-----------------------------------------------------------
|-7/9--9--9--10-9--9-9--9--9--7/9--9--9---------------------
|-7/9--9--9--10-9--9-9--9--9--7/9--9--9---------------------
|-5/7--7--7---8-7--7-7--7--7--5/7--7--7--7-6-------0-2-<3>~-
|-5/7--7--7---8-7--7-7--7--7--5/7--7--7-------8-7-----------

 -----------------------------------------------------------
 -----------------------------------------------------------
 -7/9--9--9--10-9--9-9--------7/9--9--9---------------------
 -7/9--9--9--10-9--9-9--9--9--7/9--9--9---------------------
 -5/7--7--7---8-7--7-7--7--7--5/7--7--7--7-6-------0-2-<3>~-
 -5/7--7--7---8-7--7-7--7--7--5/7--7--7-------8-7-----------
                        _____

 -----------------------------------------------------------
 -----------------------------------------------------------
 -7/9--9--9--10-9--9-9--9--9--7/9--9--9---------------------
 -7/9--9--9--10-9--9-9--9--9--7/9--9--9---------------------
 -5/7--7--7---8-7--7-7--7--7--5/7--7--7--7-6-------0-2-<3>~-
 -5/7--7--7---8-7--7-7--7--7--5/7--7--7-------8-7-----------

 ------------------------------------------------------------|
 ------------------------------------------------------------|
 -7/9--9--9--10-9--9-9--------7/9--9--9----------------------|
 -7/9--9--9--10-9--9-9--9--9--7/9--9--9----------------------|
 -5/7--7--7---8-7--7-7--7--7--5/7--7--7----------------------|
 -5/7--7--7---8-7--7-7--7--7--5/7--7--7--3-3-5-5-6-6-5-5-3-2-|
                        _____            _______________

(Gtr 2)
|--------------------------------------------------------------------
|--------------------------------------------------------------------
|--------------------------------------------------------------------
|-2----/7-6-6---6h7h9-7~--7-9/10---10p9p7-9-10-9-7-7-7-9-10-9-7-9----
|--------------------------------------------------------------------
|--------------------------------------------------------------------

 --------------------------------------------------------------------
 --------------------------------------------------------------------
 -----------------------------------------7--------------------------
 -9p7p6-6-6---6/7-9-10-9-7-9---9-9-7h9-10---10-9-9---9h10p9-7-9------
 ---------------------------------------------------------------7----
 --------------------------------------------------------------------

 ---------------------------------------------------------------------
 ---------------------------------------------------------------------
 ---------------------------------------------------------------------
 -6h7h9-6-7~-6h7p6--6/7--7h9-9h10-9--6h7h9-9/10~-10/12~-9-10-7-9------
 ----------------------------------------------------------------7----
 ---------------------------------------------------------------------

 --------------------------------------|
 --------------------------------------|
 --------------------------------------|
 -6h7h9-6-7~-----------------------9\--|
 -----------------8--7--8------7h8-7\--|
 --------------------------------------|


RIFF C:

|-----------------------------------------------------------------|
|-----------------------------------------------------------------|
|-----------------------------------------------------------------|
|-2-----9-12\----------------------2-----9-12\--------------------|
|-2-----7-10\----------------------2-----7-10\-----------3-5-<6>~-|
|-0-000--------3-3-5-5-6-6-5-5-3-2-0-000--------3--5--6-----------| 4x
    ___        _______________       ___


RIFF D:

|-------------------------|
|-------------------------|
|-------------------------|
|-2---10--9--7------------|
|-2----8--7--5----2-5-0-3-|
|-0-----------------------| 4x


RIFF E:
(Gtr 1)
|------------------------------------------------|
|------------------------3-----------------------|
|------------------------2-----------3-----------|
|-2----------------------0-----------3-----------|
|-2----------------------------------1-----------|
|-0----------------------------------------------|

(Gtr 2)
|------------------------------------------------|
|------------------------------------------------|
|------------------------6/7---------------------|
|-2----------------------------------7/8---------|
|-2----------------------------------------------|
|-0----------------------------------------------|

(Gtr 1)
|------------------------------------------------|
|------------------------3-----------------------|
|------------------------2-----------3-----------|
|-2----------------------0-----------3-----------|
|-2----------------------------------1-----------|
|-0----------------------------------------------|

(Gtr 2)
|------------------------------------------------|
|------------------------------------------------|
|-12\9-------------------6/7---------------------|
|------------------------------------7/8---------|
|------------------------------------------------|
|------------------------------------------------| 2x

(Gtr 1)
|------------------------------------------------|
|------------------------3-----------------------|
|------------------------2-----------3-----------|
|-2----------------------0-----------3-----------|
|-2----------------------------------1-----------|
|-0----------------------------------------------|

(Gtr 2)
|----------------------------------------------------------------------|
|----------------------------------------------------------------------|
|-12\9-------------------6/7---------------------12\9------------------|
|------------------------------------7/8-------------------------------|
|----------------------------------------------------------------------|
|----------------------------------------------------------------------|


RIFF A - 4x


RIFF Bb:
(Gtr 1)
|-----------------------------------------------------------
|-----------------------------------------------------------
|-7/9--9--9--10-9--9-9--9--9--7/9--9--9---------------------
|-7/9--9--9--10-9--9-9--9--9--7/9--9--9---------------------
|-5/7--7--7---8-7--7-7--7--7--5/7--7--7--7-6-------0-2-<3>~-
|-5/7--7--7---8-7--7-7--7--7--5/7--7--7-------8-7-----------

 -----------------------------------------------------------
 -----------------------------------------------------------
 -7/9--9--9--10-9--9-9--------7/9--9--9---------------------
 -7/9--9--9--10-9--9-9--9--9--7/9--9--9---------------------
 -5/7--7--7---8-7--7-7--7--7--5/7--7--7--7-6-------0-2-<3>~-
 -5/7--7--7---8-7--7-7--7--7--5/7--7--7-------8-7-----------
                        _____

 -----------------------------------------------------------
 -----------------------------------------------------------
 -7/9--9--9--10-9--9-9--9--9--7/9--9--9---------------------
 -7/9--9--9--10-9--9-9--9--9--7/9--9--9---------------------
 -5/7--7--7---8-7--7-7--7--7--5/7--7--7--7-6-------0-2-<3>~-
 -5/7--7--7---8-7--7-7--7--7--5/7--7--7-------8-7-----------

 ------------------------------------------------------------|
 ------------------------------------------------------------|
 -7/9--9--9--10-9--9-9--------7/9--9--9----------------------|
 -7/9--9--9--10-9--9-9--9--9--7/9--9--9----------------------|
 -5/7--7--7---8-7--7-7--7--7--5/7--7--7----------------------|
 -5/7--7--7---8-7--7-7--7--7--5/7--7--7--3-3-5-5-6-6-5-5-3-2-|
                        _____            _______________

(Gtr 2)
|-------------------------------------------
|-------------------------------------------
|-------------------------------------------
|-2----/6-6----6h7-7~---7/10-10--9-9--<9>\--
|-------------------------------------------
|-------------------------------------------

 ----------------------------------------------------
 ----------------------------------------------------
 ----------------------------------------------------
 -2----/6-6------------------------------------------
 --------------8p7-8p7---9-<10>--9-<10>--8p7-8p7-----
 ----------------------------------------------------

 --------------------------------------------------------------------|
 --------------------------------------------------------------------|
 --------------------------7-----------------------------------------|
 -7-6-6----6/7-7~---7h9-10---10-9-9--<9>\--2----2/6-6----------------|
 --------------------------------------------------------8p7-8p7---\-|
 --------------------------------------------------------------------|


RIFF C - 4x


OUTRO:
(Gtr 1)
|------------------------------------------------|
|------------------------3-----------------------|
|------------------------2-----------3-----------|
|-2----------------------0-----------3-----------|
|-2----------------------------------1-----------|
|-0----------------------------------------------|

(Gtr 2)
|------------------------------------------------|
|------------------------------------------------|
|------------------------6/7---------------------|
|-2----------------------------------7/8---------|
|-2----------------------------------------------|
|-0----------------------------------------------|

(Gtr 1)
|------------------------------------------------|
|------------------------3-----------------------|
|------------------------2-----------3-----------|
|-2----------------------0-----------3-----------|
|-2----------------------------------1-----------|
|-0----------------------------------------------|

(Gtr 2)
|------------------------------------------------|
|------------------------------------------------|
|-12\9-------------------6/7---------------------|
|------------------------------------7/8---------|
|------------------------------------------------|
|------------------------------------------------| 2x

(Gtr 1)
|--------------------------------------------------|
|------------------------3-------------------------|
|------------------------2-----------3-------------|
|-2----------------------0-----------3-------------|
|-2----------------------------------1-----------2-|
|-0----------------------------------------------0-|
                                                 _

(Gtr 2)
|----------------------------------------------------------------------|
|----------------------------------------------------------------------|
|-12\9-------------------6/7---------------------12\9------------------|
|------------------------------------7/8-------------------------------|
|----------------------------------------------------------------------|
|----------------------------------------------------------------------|

  Visit MetalTabs.com for more metal tablature

bottom separator

Contact Us | Privacy Policy | Disclaimer | Legal Notice
Copyright © 2001-2014 MetalTabs.com. All Rights Reserved.