top separator

Home

Forum

What's New

Submit a Tab

FAQ

Links

Contact Us

Link to Us

MetalTabs.com logo

Bands

0-9

A

B

C

D

E

F

G

H

I

J

K

L

M

N

O

P

Q

R

S

T

U

V

W

X

Y

Z

Search

What

Where
 

My Dying Bride - "The Isis Script" Guitar Tab

Plain Text Version
More My Dying Bride Tabs

Hits: 6307
Rated: 4.67 out of 5 (3 votes)
Updated: 2003-12-28 07:09:18

 

By:

Father Death

sendpm.gif

email.gif

Important note
This tab is available online because we obtained explicit permission from My Dying Bride or their label.


#----------------------------------PLEASE NOTE---------------------------------#
#This file is the author's own work and represents their interpretation of the #
#song. You may only use this file for private study, scholarship, or research. #
#Unless specified otherwise, this is NOT an official tab from the band members.#
#------------------------------------------------------------------------------#

  Visit MetalTabs.com for more metal tablature
  
Band:  MY DYING BRIDE
Album: The Light at the End of the World
Song:  The Isis Script

Transcribed by:	Chris Humeniuk
Email:  father_death_666@hotmail.com

Tuning:	1.5 steps down

Keys:
 ___ - palm mute
  p  - pull off
 / \ - slide
  h  - hammer on


INTRO:
(Gtr 1)
|---------------------------------------------------------------|
|---------------------------------------------------------------|
|---------------------------------------------------------------|
|---4-4p2-2--------4-4p2-2--------------------------------------|
|-2------------2-2------------2-2-3-3p2-2--2--2-2-2-2h5-5--5--2-|
|-0------------0-0------------0-0-------------0---------------0-|
  _            ___            ___             ___             _

(Gtr 2)
|---------------------------------------------------------------|
|---------------------------------------------------------------|
|---------------------------------------------------------------|
|---7-7\5-5--------7-7\5-5--------7-7\5-4--2--4-2-2-2h4-5--4--2-|
|---------------------------------------------------------------|
|-0------------0-0------------0-0-------------------------------| 4x
  _            ___            ___


RIFF A:

|------------------------------------------------------------------------------|
|------------------------------------------------------------------------------|
|------------------------------------------------------------------------------|
|------------------------------------------------------------/9--8-------5--4--|
|-----2p1-2~----2-2--2-2------2p1-2~----2-2--2-2------2p1-2~-/7--6---5h7-3--2--|
|-0-3-----------0-0--0-0--0-3-----------0-0--0-0--0-3--------------------------|
  ___           _____________           _____________

|------------------------------------------------------|
|------------------------------------------------------|
|------------------------------------------------------|
|------------------------------------/9--8-------5--4--|
|-----2p1-2~----2-2--2-2------2p1-2~-/7--6---5h7-3--2--|
|-0-3-----------0-0--0-0--0-3--------------------------| 2x
  ___           _____________


CHORUS:

|------------------------------------------------------------
|------------------------------------------------------------
|------------------------------------------------------------
|-/9---9---9-9-12-12--12---12-12-11-11--11---11-11-5-5--5--5/
|-/7---7---7-7-10-10--10---10-10--9--9---9----9--9-3-3--3--3/
|------------------------------------------------------------

 ------------------------------------------------------------|
 ------------------------------------------------------------|
 ------------------------------------------------------------|
 -9---9---9-9-12-12-12-12---12-12-11-11-11-11--\--4----------|
 -7---7---7-7-10-10-10-10---10-10--9--9--9--9--\--2------5-4-|
 --------------------------------------------------------3-2-| 2x
                                                         ___

(Gtr 1)
|------------------------------------------------------------
|------------------------------------------------------------
|------------------------------------------------------------
|-/9---9---9-9-12-12--12---12-12-11-11--11---11-11-5-5--5--5/
|-/7---7---7-7-10-10--10---10-10--9--9---9----9--9-3-3--3--3/
|------------------------------------------------------------

 ------------------------------------------------------------|
 ------------------------------------------------------------|
 ------------------------------------------------------------|
 -9---9---9-9-12-12-12-12---12-12-11-11-11-11--\--4----------|
 -7---7---7-7-10-10-10-10---10-10--9--9--9--9--\--2------5-4-|
 --------------------------------------------------------3-2-| 4x
                                                         ___

(Gtr 2)
|------------------------------------------------------------------------
|------------------------------------------------------------------------
|------------------------------------------------------------------------
|------------------------------------------------------------------------
|---7---9---10---9---10---9---10---10---7---9---10---12---10---9---7/9\7-
|-0---0---0----0---0----0---0----0----0---0---0----0----0----0---0-------
  _   _   _    _   _    _   _    _    _   _   _    _    _    _   _

 ---------------------------------------------------------------------------|
 ---------------------------------------------------------------------------|
 ---------------------------------------------------------------------------|
 ---------------------------------------------------------------------------|
 ---7---9---10---9---10---9---10---10---7---9---10---12---10---9---10/12\10-|
 -0---0---0----0---0----0---0----0----0---0---0----0----0----0---0----------|
  _   _   _    _   _    _   _    _    _   _   _    _    _    _   _       2x

(Gtr 3)
|--------------------------------------------------------------------|
|--------------------------------------------------------------------|
|--------------------------------------------------------------------|
|--------7---9---7---9---7---9---9--------7---9---10---9---7---5/7\5-|
|---10-------------------------------10------------------------------|
|-0----0---0---0---0---0---0---0---0----0---0---0----0---0---0-------| 2x
  _    _   _   _   _   _   _   _   _    _   _   _    _   _   _


FILL:

|------------------------------------------------------|
|------------------------------------------------------|
|------------------------------------------------------|
|------------------------------------/9--8-------5--4--|
|-----2p1-2~----2-2--2-2------2p1-2~-/7--6---5h7-3--2--|
|-0-3-----------0-0--0-0--0-3--------------------------|
  ___           _____________


RIFF B:

|--------------------------------------------------------------------
|--------------------------------------------------------------------
|--------------------------------------------------------------------
|-5-5-5-5---5-5----5-5-5-5-5-5-5-5----------4-4-4-4--4-4-4-4-4-4-4-4-
|-3-3-3-3-6-3-3-6--3-3-3-3-3-3-3-3--6-6-6-6-2-2-2-2--2-2-2-2-2-2-2-2-
|-----------------------------------4-4-4-4--------------------------
  __________________________________________________________________

 --------------------------------------------------------------------|
 --------------------------------------------------------------------|
 --------------------------------------------------------------------|
 -5-5-5-5---5-5----5-5-5-5-5-5-5-5----------4-4-4-4------------------|
 -3-3-3-3-6-3-3-6--3-3-3-3-3-3-3-3--6-6-6-6-2-2-2-2--4-4-4-4-4-4-4-4-|
 -----------------------------------4-4-4-4----------2-2-2-2-2-2-2-2-| 4x
  __________________________________________________________________


CHORUS


RIFF A


RIFF B


CHORUS


OUTRO:

|-------------------|
|-------------------|
|-------------------|
|-------------------|
|-----2p1-2~----2-2-|
|-0-3-----------0-0-|
  ___           ___

  Visit MetalTabs.com for more metal tablature

bottom separator

Contact Us | Privacy Policy | Disclaimer | Legal Notice
Copyright © 2001-2014 MetalTabs.com. All Rights Reserved.