top separator

Home

Forum

What's New

Submit a Tab

FAQ

Links

Contact Us

Link to Us

MetalTabs.com logo

Bands

0-9

A

B

C

D

E

F

G

H

I

J

K

L

M

N

O

P

Q

R

S

T

U

V

W

X

Y

Z

Search

What

Where
 

My Dying Bride - "Sear Me III" Guitar Tab

Plain Text Version
More My Dying Bride Tabs

Hits: 6625
Rated: 4.75 out of 5 (4 votes)
Updated: 2003-12-28 06:40:12

 

By:

Father Death

sendpm.gif

email.gif

Important note
This tab is available online because we obtained explicit permission from My Dying Bride or their label.


#----------------------------------PLEASE NOTE---------------------------------#
#This file is the author's own work and represents their interpretation of the #
#song. You may only use this file for private study, scholarship, or research. #
#Unless specified otherwise, this is NOT an official tab from the band members.#
#------------------------------------------------------------------------------#

  Visit MetalTabs.com for more metal tablature
  
Band:  MY DYING BRIDE
Album: The Light at the End of the World
Song:  Sear Me III

Transcribed by:	Chris Humeniuk
Email:  father_death_666@hotmail.com

Tuning:	1.5 steps down

Keys:
 / \ - slide
  h  - hammer on
  p  - pull off
 < > - pinch harmonic


INTRO:
(Gtr 1 - turn volume knob up)
|------------------------------|
|------------------------------|
|------------------------------|
|------------------------------|
|-(2)--------------------------|
|------------------------------|

(Gtr 2 - turn volume knob up)
|------------------------------|
|------------------------------|
|------------------------------|
|--------(2)-------------------|
|------------------------------|
|------------------------------|


RIFF A:
(Gtr 1)
|-------------------------------------------------------------
|-------------------------------------------------------------
|-------------------------------------------------------------
|--------2--------------3--------------2--------------2-------
|-2--2-3---3-2-3-3--3-5---5-3-5-2--2-3---3-2-3-2--2-3---3-2-3-
|-------------------------------------------------------------

(Gtr 2)
|-------------------------------------------------------------
|-------------------------------------------------------------
|-------------------------------------------------------------
|-------------------------------------------------------------
|-2------------2-2/3----------3-3/7------------7-7\5--------5-
|-------------------------------------------------------------

(Gtr 1)
 -------------------------------------------------------------|
 -------------------------------------------------------------|
 -------------------------------------------------------------|
 --------2--------------3--------------2--------------2-------|
 -2--2-3---3-2-3-3--3-5---5-3-5-2--2-3---3-2-3-2--2-3---3-2-3-|
 -------------------------------------------------------------|

 -------------------------------------------------------------|
 -------------------------------------------------------------|
 -------------------------------------------------------------|
 ---------------------------------------------------7---------|
 -5\2----------2-2/3----------3-3/7-----------7-7\5-----------|
 -------------------------------------------------------------|


RIFF B:
(Gtr 1)
|-----------------------------------------------------------------------------
|-----------------------------------------------------------------------------
|-----------------------------------------------------------------------------
|-----------------------9-----------------------------------------------------
|-------------8-7-5-----7-----------<3>~-------------8-7-5--------------------
|-0--------------------------------------0---------------------6-----------/\-

(Gtr 2)
|-----------------------------------------------------------------------------
|-----------------------------------------------------------------------------
|-----------------------------------------------------------------------------
|----9h10-9p7-9---7-------------------------9h10-9p7-9------------5/8-8-------
|--------------------10p9-10p9-7------------------------10p9-10p9-------------
|-0----------------------------------8~--0------------------------------------

(Gtr 1)
 ----------------------------------------------------------------------------|
 ----------------------------------------------------------------------------|
 ----------------------------------------------------------------------------|
 -------------------------------------------------------------------9--------|
 -------------8-7-5--------------------3~----------------8-7-5------7--------|
 -0------------------------------------------0-------------------------------|

 ----------------------------------------------------------------------------|
 ----------------------------------------------------------------------------|
 ----------------------------------------------------------------------------|
 ----9h10-9p7-9--7-7----------------------------9h10-9p7-9-----7-------------|
 --------------------10p9-10p9------------------------------10---10p7------\-|
 -0----------------------------10----8-8/12--0-------------------------------|


RIFF A


RIFF C:
(Gtr 1)
|-----------------------------------------------------------
|-----------------------------------------------------------
|-9---------------------------------------------------------
|-9-----------9------/12-12-12--10-10-10--9-9-9--5--5/7-7---
|-7---------------------------------------------------------
|-----------------------------------------------------------

(Gtr 2)
|-----------------------------------------------------------
|-----------------------------------------------------------
|-------------------------------------------------4/5-5-----
|----9h10-9p7-9---------------------------7-7-7\5-----------
|-7---------------------------------------------------------
|-----------------------------------------------------------

(Gtr 1)
 --------------------------------
 --------------------------------
 --------------------------------
 --------------------------------
 ------8--8----------------------
 --------------------------------

(Gtr 2)
 --------------------------------
 --------------------------------
 -/7-----------------------------
 -----10p9-10p9-7------7-7-7-7h9-
 --------------------------------
 --------------------------------

(Gtr 1)
 -----------------------------------------------------------------------------
 -----------------------------------------------------------------------------
 -----------------------------------------------------------------------------
 -9-----------9------/12-12-12--10-10-10--9-9-9--5-5/7-7----------------------
 -------------------------------------------------------------8-8/10-10-------
 -----------------------------------------------------------------------------

(Gtr 2)
 -----------------------------------------------------------------------------
 -----------------------------------------------------------------------------
 -----------------------------------------------------------------------------
 -9--9h10-9p7-9-----------------------------------------------7-7/8-8-------8-
 ----------------------7--7--7---3--3--3--2-2-2--0--0-------------------------
 -----------------------------------------------------------------------------

(Gtr 1)
 --------------------------------------------------------------
 --------------------------------------------------------------
 --------------------------------------------------------------
 ---9------------9------/12-12-12--10-10-10--9-9-9--5--5/7-7---
 --------------------------------------------------------------
 --------------------------------------------------------------

(Gtr 2)
 --------------------------------------------------------------
 --------------------------------------------------------------
 ----------------------------------------------------4/5-5-----
 -8h9---9h10-9p7-9---------------------------7-7-7\5-----------
 --------------------------------------------------------------
 --------------------------------------------------------------

(Gtr 1)
 --------------------------------
 --------------------------------
 --------------------------------
 --------------------------------
 ------8--8----------------------
 --------------------------------

(Gtr 2)
 --------------------------------
 --------------------------------
 -/7-----------------------------
 -----10p9-10p9-7------7-7-7-7h9-
 --------------------------------
 --------------------------------

(Gtr 1)
 -----------------------------------------------------------------------------
 -----------------------------------------------------------------------------
 -----------------------------------------------------------------------------
 -9-----------9------/12-12-12--10-10-10--9-9-9--5-5/7-7----------------------
 -------------------------------------------------------------8-8/10-10-------
 -----------------------------------------------------------------------------

(Gtr 2)
 -----------------------------------------------------------------------------
 -----------------------------------------------------------------------------
 -----------------------------------------------------------------------------
 -9--9h10-9p7-9-----------------------------------------------7-7/8-8-------8-
 ----------------------7--7--7---3--3--3--2-2-2--0--0-------------------------
 -----------------------------------------------------------------------------

(Gtr 1)
 --------------------------------------------------------------
 --------------------------------------------------------------
 --------------------------------------------------------------
 ---9------------9------/12-12-12--10-10-10--9-9-9--5--5/7-7---
 --------------------------------------------------------------
 --------------------------------------------------------------

(Gtr 2)
 --------------------------------------------------------------
 --------------------------------------------------------------
 ----------------------------------------------------4/5-5-----
 -8h9---9h10-9p7-9---------------------------7-7-7\5-----------
 --------------------------------------------------------------
 --------------------------------------------------------------

(Gtr 1)
 --------------------------------
 --------------------------------
 --------------------------------
 --------------------------------
 ------8--8----------------------
 --------------------------------

(Gtr 2)
 --------------------------------
 --------------------------------
 -/7-----------------------------
 -----10p9-10p9-7------7-7-7-7h9-
 --------------------------------
 --------------------------------

(Gtr 1)
 -----------------------------------------------------------------------------|
 -----------------------------------------------------------------------------|
 -----------------------------------------------------------------------------|
 -9-----------9------/12-12-12--10-10-10--9-9-9--5-5/7-7----------------------|
 -------------------------------------------------------------8-8/10-10-------|
 -----------------------------------------------------------------------------|

(Gtr 2)
 -----------------------------------------------------------------------------|
 -----------------------------------------------------------------------------|
 -----------------------------------------------------------------------------|
 -9--9h10-9p7-9-----------------------------------------------7-7/8-8----<8>\-|
 ----------------------7--7--7---3--3--3--2-2-2--0--0-------------------------|
 -----------------------------------------------------------------------------|


RIFF A


RIFF B - 2x


OUTRO:
(Gtr 1)
|-----------------------------------------------------------
|-----------------------------------------------------------
|-9---------------------------------------------------------
|-9-----------9------/12-12-12--10-10-10--9-9-9--5--5/7-7---
|-7---------------------------------------------------------
|-----------------------------------------------------------

(Gtr 2)
|-----------------------------------------------------------
|-----------------------------------------------------------
|-------------------------------------------------4/5-5-----
|----9h10-9p7-9---------------------------7-7-7\5-----------
|-7---------------------------------------------------------
|-----------------------------------------------------------

(Gtr 1)
 -------------------------------|
 -------------------------------|
 -------------------------------|
 -------------------------------|
 ------8--8---------------------|
 -------------------------------|

(Gtr 2)
 -------------------------------|
 -------------------------------|
 -/7----------------------------|
 -----10p9-10p9-7------7-7h9-9--|
 -------------------------------|
 -------------------------------|

(Gtr 1)
|---------------------------------------------------|
|---------------------------------------------------|
|---------------------------------------------------|
|--9h10-9p7-9------/12-12-12--10-10-10--9-9-9\5-----|
|---------------------------------------------------|
|------------------------------------------------0--|

(Gtr 2)
|---------------------------------------------------|
|---------------------------------------------------|
|---------------------------------------------------|
|-----------9---------------------------------------|
|-----------------------------------10-----9-----7--|
|---------------------------------------------------| 3x

(Gtr 1)
|------------------------------------------------------------------------|
|------------------------------------------------------------------------|
|------------------------------------------------------------------------|
|--9h10-9p7-9------/12-12-12--10-10-10--9-9-9\5--------------------------|
|------------------------------------------------------------------------|
|------------------------------------------------0-----------------------|

(Gtr 2)
|------------------------------------------------------------------------|
|------------------------------------------------------------------------|
|------------------------------------------------------------------------|
|-----------9------------------------------------------------------------|
|-----------------------------------10-----9-----7-----------------------|
|------------------------------------------------------------------------|

  Visit MetalTabs.com for more metal tablature

bottom separator

Contact Us | Privacy Policy | Disclaimer | Legal Notice
Copyright © 2001-2014 MetalTabs.com. All Rights Reserved.