top separator

Home

Forum

What's New

Submit a Tab

FAQ

Links

Contact Us

Link to Us

MuSpy.com

MetalTabs.com logo

Bands

0-9

A

B

C

D

E

F

G

H

I

J

K

L

M

N

O

P

Q

R

S

T

U

V

W

X

Y

Z

Search

What

Where
 

My Dying Bride - "The Fever Sea" Guitar Tab

Plain Text Version
More My Dying Bride Tabs

Hits: 5390
Rated: 5.00 out of 5 (1 vote)
Updated: 2003-12-28 06:39:08

 

By:

Father Death

sendpm.gif

email.gif

Important note
This tab is available online because we obtained explicit permission from My Dying Bride or their label.


#----------------------------------PLEASE NOTE---------------------------------#
#This file is the author's own work and represents their interpretation of the #
#song. You may only use this file for private study, scholarship, or research. #
#Unless specified otherwise, this is NOT an official tab from the band members.#
#------------------------------------------------------------------------------#

  Visit MetalTabs.com for more metal tablature
  
Band:  MY DYING BRIDE
Album: The Light at the End of the World
Song:  The Fever Sea

Transcribed by:	Chris Humeniuk
Email:  father_death_666@hotmail.com

Tuning:	1.5 steps down

Keys:
 ___ - palm mute
 < > - pinch harmonic
 / \ - slide
  h  - hammer on
  p  - pull off


INTRO:
(Gtr 1)
|-----------------------------|
|-----------------------------|
|-----------------------------|
|-222222-222255-444444-444444-|
|-----------------------------|
|-----------------------------|
  ___________________________

(Gtr 2)
|-----------------------------|
|-----------------------------|
|-----------------------------|
|-----------------------------|
|--------333333-333333-222222-|
|-000000----------------------| 4x
  ___________________________


RIFF A:

|----------------------------------------------------------
|----------------------------------------------------------
|-5-----7-----8-----------4-4-4-4-4-4-4-4--4-4-4-4-4-4-4-4-
|-5-----7-----8-----------4-4-4-4-4-4-4-4--4-4-4-4-4-4-4-4-
|-3-----5-----6-----3-5-6-2-2-2-2-2-2-2-2--2-2-2-2-2-2-2-2-
|----------------------------------------------------------
                    _____

 ----------------------------------------------------------
 ----------------------------------------------------------
 -------------------------4-4-4-4-4-4-4-4--4-4-4-4-4-4-4-4-
 -------------------------4-4-4-4-4-4-4-4--4-4-4-4-4-4-4-4-
 -3-3-3-5-5-5-6-6-6-3-5-6-2-2-2-2-2-2-2-2--2-2-2-2-2-2-2-2-
 ----------------------------------------------------------
  _______________________

 ----------------------------------------------------------
 ----------------------------------------------------------
 -------------------------4-4-4-4-4-4-4-4--4-4-4-4-4-4-4-4-
 -------<4>~--------------4-4-4-4-4-4-4-4--4-4-4-4-4-4-4-4-
 -<2>~--------<2>~--3-5-6-2-2-2-2-2-2-2-2--2-2-2-2-2-2-2-2-
 ----------------------------------------------------------
                    _____

 ----------------------------------------------------------|
 ----------------------------------------------------------|
 -------------------------4-4-4-4-4-4-4-4--4-4-4-4-4-4-4-4-|
 -------------------------4-4-4-4-4-4-4-4--4-4-4-4-4-4-4-4-|
 -33333355555566666-3-5-6-2-2-2-2-2-2-2-2--2-2-2-2-2-2-2-2-|
 ----------------------------------------------------------|
  _______________________


INTRO - 4x


RIFF A


RIFF Ba:
(Gtr 1)
|--------------------------|      |----|
|--------------------------|      |----|
|--------------------------|      |----|
|-5/7----------------------|      |----|
|-3/7-7-7-7-10-9-9-9-9-9-9-|      |-9\-|
|-3/5----------------------| 12x  |----|
      ____________________

(Gtr 2)
|------------------------------|      |----|
|------------------------------|      |----|
|------------------------------|      |-4\-|
|--------------------4h5-7p5p4-|      |-4\-|
|-3/7-7-7-7-10-9-9-9-----------|      |----|
|------------------------------| 12x  |----|
      ______________


RIFF C:
(Gtr 1)
|---------------------------------------------------
|---------------------------------------------------
|--------------------------5-----5-------5---5------
|-2-----2-------2---2------5-----5-------5---5------
|-2-----2-------2---2------3-----3-------3---3------
|-0-0-0-0-0-0-0-0-0-0-0-00-3-3-3-3-3-3-3-3-3-3-3-33-
    ___   _____   _   ____   ___   _____   _   ____

(Gtr 2)
|---------------------------------------------------
|---------------------------------------------------
|-9-----9-------9---9------5-----5-------5---5------
|-9-----9-------9---9------5-----5-------5---5------
|-7-----7-------7---7------3-----3-------3---3------
|-7-7-7-7-7-7-7-7-7-7-7-77-3-3-3-3-3-3-3-3-3-3-3-33-
    ___   _____   _   ____   ___   _____   _   ____

(Gtr 1)
 ---------------------------------------------------|
 ---------------------------------------------------|
 ---------------------------------------------------|
 -2-----2-------2---2------5-----5-------5---5------|
 -2-----2-------2---2------5-----5-------5---5------|
 -0-0-0-0-0-0-0-0-0-0-0-00-3-3-3-3-3-3-3-3-3-3-3-33-|
    ___   _____   _   ____   ___   _____   _   ____

(Gtr 2)
 ---------------------------------------------------|
 ---------------------------------------------------|
 -9-----9-------9---9------7-----7-------7---7------|
 -9-----9-------9---9------5-----5-------5---5------|
 -7-----7-------7---7------5-5-5-5-5-5-5-5-5-5-5-55-|
 -7-7-7-7-7-7-7-7-7-7-7-77--------------------------| 4x
    ___   _____   _   ____   ___   _____   _   ____


INTRO - 4x


RIFF A


RIFF Bb
(Gtr 1)
|--------------------------|
|--------------------------|
|--------------------------|
|-5/7----------------------|
|-3/7-7-7-7-10-9-9-9-9-9-9-|
|-3/5----------------------|
      ____________________

(Gtr 2)
|------------------------------|
|------------------------------|
|------------------------------|
|--------------------4h5-7p5p4-|
|-3/7-7-7-7-10-9-9-9-----------|
|------------------------------| 8x
      ______________


RIFF C - 2x


INTRO - 4x


RIFF A


OUTRO:

|-------------------------|
|-------------------------|
|-5-5-5-7-7-7-8-8-8-------|
|-5-5-5-7-7-7-8-8-8-5-7-8-|
|-3-3-3-5-5-5-6-6-6-3-5-6-|
|-3-3-3-5-5-5-6-6-6-3-5-6-|
                    _____

  Visit MetalTabs.com for more metal tablature

bottom separator

Contact Us | Privacy Policy | Disclaimer | Legal Notice
Copyright © 2001-2014 MetalTabs.com. All Rights Reserved.