top separator

Home

Forum

What's New

Submit a Tab

FAQ

Links

Contact Us

Link to Us

MuSpy.com

MetalTabs.com logo

Bands

0-9

A

B

C

D

E

F

G

H

I

J

K

L

M

N

O

P

Q

R

S

T

U

V

W

X

Y

Z

Search

What

Where
 

Necrophobic - "Shadows of the Moon (Instrumental)" Guitar Tab

Plain Text Version
More Necrophobic Tabs

Hits: 3867
Rated: 3.40 out of 5 (5 votes)
Updated: 2004-06-13 17:29:09

 

By:

EZURATE

sendpm.gif

email.gif

Important note
This tab is available online because we obtained explicit permission from Necrophobic or their label.


#----------------------------------PLEASE NOTE---------------------------------#
#This file is the author's own work and represents their interpretation of the #
#song. You may only use this file for private study, scholarship, or research. #
#Unless specified otherwise, this is NOT an official tab from the band members.#
#------------------------------------------------------------------------------#

  Visit MetalTabs.com for more metal tablature
  
Band: NECROPHOBIC
Album: THE CALL 7" EP
Song: SHADOWS OF THE MOON

Copyright (c) Wild Rags Records 1993
Version 1.0 - October 20, 2003
Version 1.2 - June 07, 2004
Version 1.4 - June 13, 2004


Transcribed By: Tony Baranowski
Email: ezurate@sbcglobal.net

Tuning: D/G/C/F/A/D

^ = palm-muting
p = pull-off

      Riff A
      1      &     2      &     3     &     4     &
||----12p0---8p0---10p0---7p0---8p0---5p0---7p0---3p0----||
||o-----------------------------------------------------o||
||-------------------------------------------------------||
||-------------------------------------------------------||
||o-----------------------------------------------------o||
||-------------------------------------------------------||
|     E5                                                  |
||-------------------------------------------------------||
||o-----------------------------------------------------o||
||-------------------------------------------------------||
||----2------------------------------------------(2)-----||
||o---2------------------------------------------(2)----o||
||----0------------------------------------------(0)-----||

      Riff B
      1      &     2      &     3     &     4     &
||-------------------------------------------------------||
||o---12p0---8P0---10p0---7p0---8p0---5p0---7p0---3p0---o||
||-------------------------------------------------------||
||-------------------------------------------------------||
||o-----------------------------------------------------o||
||-------------------------------------------------------||
|     B5/F#                                               |
||-------------------------------------------------------||
||o-----------------------------------------------------o||
||-------------------------------------------------------||
||----4------------------------------------------(4)-----||
||o---2------------------------------------------(2)----o||
||----2------------------------------------------(2)-----||

      Riff C
      1  e  & a 2  e  & a 3 e & a 4 e & a
||-------------------------------------------||
||o-----------------------------------------o||
||-------------------------------------------||
||-------------------------------------------||
||o-----------------------------------------o||
||----12-12-8-8-10-10-7-7-8-8-5-5-7-7-3-3----||
      ^  ^  ^ ^ ^  ^  ^ ^ ^ ^ ^ ^ ^ ^ ^ ^

      Riff C (Guitar #2)
      1 e & a 2 e & a 3 e & a 4 e & a
||---------------------------------------||
||o-------------------------------------o||
||---------------------------------------||
||---------------------------------------||
||o-------------------------------------o||
||----0-0-0-0-0-0-0-0-0-0-0-0-0-0-0-0----||
      ^ ^ ^ ^ ^ ^ ^ ^ ^ ^ ^ ^ ^ ^ ^ ^

Full Score Arrangement:
Riff A: 8
Riff B: 2
Riff A: 4
Riff B: 2
Riff A: 2
Riff C: 4

  Visit MetalTabs.com for more metal tablature

bottom separator

Contact Us | Privacy Policy | Disclaimer | Legal Notice
Copyright © 2001-2014 MetalTabs.com. All Rights Reserved.