top separator

Home

Forum

What's New

Submit a Tab

FAQ

Links

Contact Us

Link to Us

MuSpy.com

MetalTabs.com logo

Bands

0-9

A

B

C

D

E

F

G

H

I

J

K

L

M

N

O

P

Q

R

S

T

U

V

W

X

Y

Z

Search

What

Where
 

Gorgasm - "Disembodied" Guitar Tab

Plain Text Version
More Gorgasm Tabs

Hits: 4625
Rated: 3.00 out of 5 (2 votes)
Updated: 2003-12-28 05:36:43

 

By:

BrutalGtrPlayer

sendpm.gif

email.gif

Important note
This tab is available online because we obtained explicit permission from Gorgasm or their label.


#----------------------------------PLEASE NOTE---------------------------------#
#This file is the author's own work and represents their interpretation of the #
#song. You may only use this file for private study, scholarship, or research. #
#Unless specified otherwise, this is NOT an official tab from the band members.#
#------------------------------------------------------------------------------#

  Visit MetalTabs.com for more metal tablature
  
Band:  (Gorgasm)
Album: (Bleeding Profusely)
Song:  (Disembodied)

Copyright (c)  (Extremities Productions) (2001)
Version 1.0 - (10/6/03)

Transcribed By: (Kevin Frasard)
Email:          (TheWholeFahKingShow@hotmail.com)


.  - palm mute           /  - slide up to
\  - slide down to       ~  - vibrato
h  - hammer on           b  - Bend
p  - pull off            Suffixes for bend
t  - tap                 f  - full bend    h - half bend
ph - pinched harmonic    q  - quarter bend t - tap bend
*  - see comment         ^  - Hold bend    r release bend
x  - Stuccatto           ~  - vibrato bend
,  - slight palm mute    () - ghost note, sustained note
"  - tremolo note        <> - Trill

Tuning B



  p.m..................\
--------------------------
--------------------------
--------------------------
--------------------------
--5--6--5--3--5--6--5--3--
--3--4--3--1--3--4--3--1--

               Fig. 1a
  p.m p.m(gtr. 1 only).......\ p.m gtr. 1.....\ p.m...........\
-----------------------------------------------------------------
-----------------------------------------------------------------
-----------------------------------------------------------------
------777101010999555777888777-----777101010999------------------
--0-0--------------------------0-0--------------5-5-7-7-8-8-7-7--
------------------------------------------------3-3-5-5-6-6-5-5--

  Gtr. 1
               Fig. 1b
  p.m....................................................\
------------------------------------------------------------
------------------------------------------------------------
------------------------------------------------------------
------777101010999555777888777-----777101010999-------------
--0-0--------------------------0-0--------------3--5--6--5--
------------------------------------------------3--5--6--5--

  Gtr. 2

  p.m                          p.m              p.m......\
------------------------------------------------------------
------------------------------------------------------------
-----------------------------------777101010999-------------
------777101010999555777888777------------------------------
--0-0--------------------------0-0--------------5--7--8--7--
------------------------------------------------3--5--6--5--


Repeat Fig. 1a and 1b

     Gtr. 1
  p.m..................\
--------------------------
--------------------------
--------------------------
--------------------------
--3--5--6--5--4--5--4--3--
--3--5--6--5--2--3--2--1--

     Gtr. 2
  p.m..................\
--------------------------
--------------------------
--------------------------
--------------------------
--5--7--8--7--4--5--4--3--
--3--5--6--5--2--3--2--1--

  Gtr. 1                   Fig. 2 (2x)
  Gtr. 2             p.m                      p.m....\
-------------------------------------------------------------------------
-------------------------------------------------------------------------
--------------------------------------------------------333222111--------
--222111444333-------222111444333555444333444---*----5--333222111111111--
--222111444333-4--5--222111444333555444333444-4-4-5--3-----------111111--
---------------2--3---------------------------2-2-3--3-------------------
                                                *gtr. 1 don't play

  p.m............................................\     p.m......\
---------------------------------------------------- --------------
---------------------------------------------------- --------------
---------------------------------------------------- --------------
--------5--4---------4--3---------3----------------- --------------
--5--4--3--2--5-5-4--2--1--5-4-3--1--3--3--3--3--3-- --4--5--4--3--
--3--2--------3-3-2--------3-2-1-----1--1--1--1--1-- --2--3--2--1--
                                                     ^play 1st time only


  p.m............................................\
----------------------------------------------------
----------------------------------------------------
----------------------------------------------------
--------5--4---------4--3---------3-----------------
--5--4--3--2--5-5-4--2-*1--5-4-3--1--3--3--3--3--3--
--3--2--------3-3-2--------3-2-1-----1--1--1--1--1--
                       *gtr. 1 play p.h. not chord

    p.m   p.m.\     p.m   p.m.\
--------------------------------
--------------------------------
--------------------------------
--7-----6---------7-----6-------
--5-665-4-6-5-5---5-665-4-6-5-5-
----443---4-3-3-----443---4-3-3-


      (4x)
    p.m   p.m...\
-------------------
-------------------
-------------------
--7-----6----------
--5-665-4-6-5-5-5--
----443---4-3-3-3--

       Fig. 3 (8x)
  p.m              p.m...........\
------------------------------------
------------------------------------
------------------------------------
------7766--------------------------
--0-0-----6655-----6-6-7-7-5-5-6-6--
--------------6655-4-4-5-5-3-3-4-4--

        Fig. 4a (6x)
  p.m...........................\
----------------------------------
----------------------------------
----------------------------------
----------5-4-----6-5-----5-4-----
----4-5-4-----5-4-----6-5-----5-4-
--3-------------------------------

        Fig. 4b (1x)
  p.m...........................\
----------------------------------
----------------------------------
----------------------------------
----------------------------------
----------7-6-----8-7-----7-6--*--
--0-6-7-6-----7-6-----8-7-----7-6-


Fig. 4a (1x)
Fig. 4b (1x) *Gtr. 2 play p.h. instead
Fig. 4a (1x)
Fig. 4b (1x)
Fig. 4a (1x)
Fig. 4b (1x) *Gtr. 1 play p.h. instead
Fig. 4a (1x)

         Fig. 5 (8x)
  p.m...........................................\
---------------------------------------------------
---------------------------------------------------
---------------------------------------------------
---------------------------------------------------
--5-5-5-8-8-8-7-7-7-1010105-5-5-8-8-8-7-5-4-4-5-4--
--3-3-3-6-6-6-5-5-5-8-8-8-3-3-3-6-6-6-5-3-2-2-3-2--

    Fig.6a (2x)
                 p.m...\
--------------------------
--------------------------
--------------------------
--------------------------
-----------1\4-1-2--3--5--
--000000000------0--1--3--


       Fig. 6b (1x)
  p.m..................\
--------------------------
--------------------------
--------------------------
--------------------------
--5--6--5--3--5--6--5--3--
--3--4--3--1--3--4--3--1--


Fig. 6a (4x)
Fig. 6b (1x)


                       p.m
---------------------------
---------------------------
---------------------------
---------------------------
-----------777----------3--
--333444333---333444333-1--


                                                p.m
----------------------------------------------------
----------------------------------------------------
----------------------------------------------------
----------------------------------------------------
-----------777---------777---------777-----------3--
--333444333---333444333---333444333----333444333-1--



----------------------------
----------------------------
----------------------------
----------------------------
-----------777---------777--
--333444333---333444333-----


  p.m.........................................................\
-----------------------------------------------------------------
-----------------------------------------------------------------
-----------------------------------------------------------------
-----------------------------------------------------------------
--5-5-6-6-5-5-8--5-5-6-6-5-5-2--5-5-6-6-5-5-8-8-5-5-6-6-5-5-3-3--
--3-3-4-4-3-3-6--3-3-4-4-3-3-0--3-3-4-4-3-3-6-6-3-3-4-4-3-3-1-1--


  p.m.......................................\
--------------------------------------------------
--------------------------------------------------
--------------------------------------------------
--------------------------------------------------
--5--6--5--8--5--6--5--3--5--6--5--3--5--6--5--3--
--3--4--3--6--3--4--3--1--3--4--3--1--3--4--3--1--End

  Visit MetalTabs.com for more metal tablature

bottom separator

Contact Us | Privacy Policy | Disclaimer | Legal Notice
Copyright © 2001-2014 MetalTabs.com. All Rights Reserved.