top separator

Home

Forum

What's New

Submit a Tab

FAQ

Links

Contact Us

Link to Us

MuSpy.com

MetalTabs.com logo

Bands

0-9

A

B

C

D

E

F

G

H

I

J

K

L

M

N

O

P

Q

R

S

T

U

V

W

X

Y

Z

Search

What

Where
 

Iron Savior - "Gorgar (Vers '98)" Guitar Tab

Plain Text Version
More Iron Savior Tabs

Hits: 3901
Rated: 3.00 out of 5 (2 votes)
Updated: 2003-12-28 05:27:07

 

Important note
This tab is available online because we obtained explicit permission from Iron Savior or their label.


#----------------------------------PLEASE NOTE---------------------------------#
#This file is the author's own work and represents their interpretation of the #
#song. You may only use this file for private study, scholarship, or research. #
#Unless specified otherwise, this is NOT an official tab from the band members.#
#------------------------------------------------------------------------------#

  Visit MetalTabs.com for more metal tablature
  
 Gorgar (Vers. '98)
 ==================
 By Iron Savior

 From album "Unification" (1999)

 Transcribed by: Teemu Haapanen (shadowmakers@hotmail.com)
 Solos & Corrections by: Niclas Buss (thetabber@yahoo.se)

 Gtr.1 (Piet Sielck)
 Gtr.2 (Kai Hansen)


 Normal tuning


  Intro (Gtr.1)
|-15p12----------17p12----------15p12----------17p12----------|
|-------12----12-------12----12-------12----12-------12----12-|
|----------12-------------12-------------12-------------12----|
|-------------------------------------------------------------|
|-------------------------------------------------------------|
|-------------------------------------------------------------|
|
|
|-15p12----------17p12----------15p12----------17p12----------|
|-------12----12-------12----12-------12----12-------12----12-|
|----------12-------------12-------------12-------------12----|
|-------------------------------------------------------------|
|-------------------------------------------------------------|
|-------------------------------------------------------------|
|
|
|-15p12----------17p12-----------15p12----------17p12----------|
|-------12----12-------12----12--------12----12-------12----12-|
|----------12-------------12--------------12-------------12----|
|--------------------------------------------------------------|
|--------------------------------------------------------------|
|--------------------------------------------------------------|
|
|
|-14p11----------14p11----------11h14/17p14----------14h17-/19p16----------|
|-------13----13-------13----13-------------16----16--------------18----18-|
|----------14-------------14-------------------17--------------------19----|
|--------------------------------------------------------------------------|
|--------------------------------------------------------------------------|
|--------------------------------------------------------------------------|
|
|
|-15p12----------17p12-----------15p12----------17p12----------|
|-------12----12-------12----12--------12----12-------12----12-|
|----------12-------------12--------------12-------------12----|
|--------------------------------------------------------------|
|--------------------------------------------------------------|
|--------------------------------------------------------------|
|
|
|-17p14----------19p14-----------17p14----------19p14----------|
|-------15----15-------15----15--------15----15-------15----15-|
|----------14-------------14--------------14-------------14----|
|--------------------------------------------------------------|
|--------------------------------------------------------------|
|--------------------------------------------------------------|
|
|
|-17-(17)fb-17h19p17-15\14-15-17-15-14-------------------------|
|--------------------------------------17-16----------16-17-19-|
|--------------------------------------------17-16-17----------|
|--------------------------------------------------------------|
|--------------------------------------------------------------|
|--------------------------------------------------------------|
|
|
|-------------------------------------------------15----------/|
|-17-16----------16-17-19-17-16----------16-17-19----19-17-16--|
|-------17-16-17----------------17-16-17-----------------------|
|--------------------------------------------------------------|
|--------------------------------------------------------------|
|--------------------------------------------------------------|
|
|
|-17-15----------/19-17-15-------------------------------------|
|-------19-17-16-----------19-17-16-------17-16----------------|
|-----------------------------------17-16-------17-16-14-------|
|--------------------------------------------------------17-16-|
|--------------------------------------------------------------|
|--------------------------------------------------------------|
|
|
|--------------------------------------------------------------|
|--------------------------------------------------------------|
|----17-16-14-17-16-14-----------------------------------------|
|-14-------------------17-16-14----------17-16-14--------------|
|-------------------------------17-15-14----------17-16-14-----|
|----------------------------------------------------------17-\|
|
|
|-------------------|
|-------------------|
|-------------------|
|-------------------|
|-------------------|
|--15-14-12~~~~~----|
|
|
| Intro (Gtr.2)
|----------------------------|
|----------------------------|
|----------------------------|
|-9---5---9---4---5---7------|
|-7---3---7---2---3---5---2--|
|---------------------5---0_-|



  Intro Riff 1 (Gtr.1)
|----------------------------------------------------------------------------|
|----------------------------------------------------------------------------|
|----------------------------------------------------------------------------|
|----------------------------------------------------------------------------|
|-5h7-----5h7---------5h7-----5h7---------5h7-----5h7---------5h7-----7~-----|
|-----0-0-----0-0-000-----0-0-----0-0-000-----0-0-----0-0-000-----0-0-----7\-|
|     . .     . . ...     . .     . . ...     . .     . . ...     . .
|
|
| Intro Riff 1 (Gtr.2)
|----------------------------------------------------------------------------|
|----------------------------------------------------------------------------|
|----------------------------------------------------------------------------|
|----------------------------------------------------------------------------|
|-7~-----------------(7~)-----------------(7~)----------------(7~)--------7\-|
|----------------------------------------------------------------------------|



  Intro Riff 1 (Both)
|----------------------------------------------------------------------------|
|----------------------------------------------------------------------------|
|----------------------------------------------------------------------------|
|----------------------------------------------------------------------------|
|-5h7-----5h7---------5h7-----5h7---------5h7-----5h7---------5h7-----7~-----|
|-----0-0-----0-0-000-----0-0-----0-0-000-----0-0-----0-0-000-----0-0-----7\-|
      . .     . . ...     . .     . . ...     . .     . . ...     . .



  Intro Riff 2 (2x) (Both)
|------------------------------------------------------------------------|
|*----------------------------------------------------------------------*|
|------------------------------------------------------------------------|
|------------------------------------------------------------------------|
|*---------3-2--------------3-2~----------3-2---------------------------*|
|--0-2-3-0-----3-2--002-3-0-------0-2-3-0-----3-2--88-55-77-33-55-22-3~--|
   . . . . . . . .  ... . .       . . . . . . . .  .. .. .. .. .. ..



  Verse Riff (Gtr.1) (2x)
|-------------------------------------------------------------------------|
|*-----------------------------------------------------------------------*|
|-------------------------------------------------------------------------|
|-------------------------------------------------------------------------|
|*---------3-2--------------3-2~----------3-2----------------------------*|
|--0-2-3-0-----3-2--002-3-0-------0-2-3-0-----3-2---88-55-77-33-55-22-3~--|
|  . . . . . . . .  ... . .       . . . . . . . .   .. .. .. .. .. ..
|
|
| Verse Riff (Gtr.2) (2x)
|-------------------------------------------------------------------------|
|*-----------------------------------------------------------------------*|
|-------------------------------------------------------------------------|
|-------------------------------------------------------------------------|
|*-2-----2---------2-----2---------2-----2-------------------------------*|
|--0-0-0-0-0-0-000-0-0-0-0-0-0-000-0-0-0-0-0-0-000--88-55-77-33-55-22-3~--|
     . .   . . ...   . .   . . ...   . .   . . ...  .. .. .. .. .. ..



  Pre-chorus (Both)                trills............................|
|----------------------------------11h12p11---------------------------|
|-------------------------------------------11h12p11------------------|
|----------------------------------------------------11h12p11-\8h9p8~-|
|--------3----------5----------3---4----------------------------------|
|-2------1---2------3---2------1---2----------------------------------|
|-0-0000-----0-0000-----0-0000----------------------------------------|
|   ....       ....       ....
|
|
|-----------------------------------------------------------|
|-----------------------------------------------------------|
|-----------------------------------------------------------|
|--------3----------5----------3---4-4-4-4-4-4-4-4-4\-------|
|-2------1---2------3---2------1---2-2-2-2-2-2-2-2-2\--/9\--|
|-0-0000-----0-0000-----0-0000-------------------------/7\--|
    ....       ....       ....



  Chorus Riff 1 (2x) (Both)
|-------------------------------------------------------------|
|*-----------------------------------------------------------*|
|-------------------------------------------------------------|
|--------------------------------------------------5--5-------|
|*-2-----2---------2-----2---------2-----2---------3--3--5\4-*|
|--0-0-0-0-0-0-000-0-0-0-0-0-0-000-0-0-0-0-0-0-000-------3\2--|
     . .   . . ...   . .   . . ...   . .   . . ...


  Verse Riff (2x)
  Pre-chorus
  Chorus Riff 1 (2x)


  Bridge Riff 1 (Both)
|-------------------------------------------------------------------------|
|-------------------------------------------------------------------------|
|-------------------------------------------------------------------------|
|-5-5-5---4-4-4---3-3-3----------------5-5-5---4-4-4---3-3-3--------------|
|-3-3-3---2-2-2---1-1-1----------------3-3-3---2-2-2---1-1-1--------------|
|-------------------------3-0-2-3-2~---------------------------3-0-2-3-2~-|
                          . . . .                              . . . .


  Bridge Riff 2 (2x) (Both)
|--------------------------------------------------------------------------|
|*------------------------------------------------------------------------*|
|--------------------------------------------------------------------------|
|-------5------5----5-------4------4----4-------3------3----3--------------|
|*-3333-3-3333-3-33-3--2222-2-2222-2-22-2--1111-1-1111-1-11-1-------------*|
|--------------------------------------------------------------300-2-3-2~--|
   ....   ....   ..    ....   ....   ..    ....   ....   ..    ... . .



  Lead (Gtr.1)                                                                   trill  trill
|-----------------------------------------------------------------12-10----------10h11--15h16-|
|---------10-12----12~--11----11~--10----10~----------10-12----12-------12----12--------------|
|-9-11-12-------12---------11---------10------9-11-12-------12-------------12-----------------|
|---------------------------------------------------------------------------------------------|
|---------------------------------------------------------------------------------------------|
|---------------------------------------------------------------------------------------------|
|
|
|----------------------------------------------------------------------------------|
|---------10-12----12~--11----11~--10----10~----------10-12----12~--11----10-------|
|-9-11-12-------12---------11---------10------9-11-12-------12---------11----10-9~-|
|----------------------------------------------------------------------------------|
|----------------------------------------------------------------------------------|
|----------------------------------------------------------------------------------|
|
|
| Lead (Gtr.2)
|------------------------------------------------------------|
|------------------------------------------------------------|
|------------------------------------------------------------|
|----------------------------------------------2-0-------0_--|
|-------0-2---2~--1---1~--0---0--------0-2---2-----2---2-----|
|-0-2-3-----3-------2-------1----0-2-3-----3---------3-------|
| . . . .   .       .       .    . . . .   .         . .
|
|
|-----------------------------------------------------------|
|-----------------------------------------------------------|
|-----------------------------------------------------------|
|-----------------------------------------------------------|
|-------0-2---2~--1---1~--0---0--------0-2---2~--1---0---2--|
|-0-2-3-----3-------2-------1----0-2-3-----3-------2---1-0_-|
  . . . .   .       .       .    . . . .   .       .   .



  Solo 1 with Wah Wah (Piet Sielck)
|--------------------------------------------------------------|
|-----Tremolo--------------------------------------------------|
|-----bar-dive---14b(16)~-r14h16b(18)~~-r16ph14----------------|
|--9~-\\\\--------------------------------------16p17h16-14-16-|
|--9~--\\\\----------------------------------------------------|
|--------\\\\--------------------------------------------------|
|
|
|---------------------------play-with-T.bar-(Press-&-Release)..|
|----------------------------//7h10p7~-\\\----///7h10p7~-\\\---|
|----A.H.--------T.bar-------------------\\\-//------------\\\-|
|-14h16~~-----0~-\\\-dive--------------------------------------|
|------------------\\\-----------------------------------------|
|--------------------\\\---------------------------------------|
|
|
|.....................................|------------------------|
|--///7h10p7~-\\\---///7h10p7~-\\--//-7-/-12~~------------17-19|
|-//------------\\-//-----------\\//-----------\-16-18-19------|
|--------------------------------------------------------------|
|--------------------------------------------------------------|
|--------------------------------------------------------------|
|
|
|-17-17b(19)~~-r-/-19h22-22b(25)~~--r-\-19h22p19~~~-\\\--T.bar-|
|-----------------------------------------------------\\\-dive-|
|-------------------------------------------------------\\\\---|
|--------------------------------------------------------------|
|--------------------------------------------------------------|
|--------------------------------------------------------------|


  Solo Riff 1 (4x)
|-----------------------------------------|
|*---------------------------------------*|
|-----------------------------------------|
|-------4------4----4------4------2----2--|
|*-2222-2-2222-2-22-2-2222-2-2222-0-00-0-*|
|-----------------------------------------|
   ....   ....   ..   ....   ....   ..


  Solo 2 with Wah Wah (Kai Hansen)
|--------with-whammy-pedal-(octave?)---------------------------|
|--14p13-13-13----13-13-13-14p13-13-13----13-13-13-------------|
|--------------15----------------------15----------/17h16h13p16|
|--------------------------------------------------------------|
|--------------------------------------------------------------|
|--------------------------------------------------------------|
|
|
|--------------------------------------------------------------|
|--------------------------------------------------------------|
|p13\12h13h16p13h13p12--------------------------------/-6~-6b(8|
|----------------------15p13h12h13p12--------------------------|
|-------------------------------------15p14p11-----------------|
|----------------------------------------------14~~------------|
|
|
|--------------------------------------------------------------|
|--------------------------------------------------------------|
|)r6p5~-------------------------------------------------1313-12|
|-------6-5----5--6--5~------------------1010-1111-1313--------|
|-----------8~-----------\1010-1111-1313-----------------------|
|-------------------------.--.--.-.--.-.--.-.--.-.--.-.--.-.---|
|
|
|---------------12-13-12-/18~--16-15~--15~-16--18-18b(20)~-r18-|
|------12-13-15-----.--.---------------------------------------|
|13-15---------------------------------------------------------|
|--------------------------------------------------------------|
|--------------------------------------------------------------|
|--------------------------------------------------------------|
|
|
|-16h18p16-\-8--------9-------10-------11-------12-------------|
|-----------11b(13)~-12b(14)~-13b(15)~-14b(16)~-15b(17)~~--\---|
|------------------------------------------------------------\-|
|--------------------------------------------------------------|
|--------------------------------------------------------------|
|--------------------------------------------------------------|


  Solo Riff 2 (3x)                          (4th time)
|-----------------------------------------|--------------------------------|
|*---------------------------------------*|--------------------------------|
|-----------------------------------------|--------------------------------|
|-------5------5----5------5------3----3--|------5------5----5-5--6--7--8--|
|*-3333-3-3333-3-33-3-3333-3-3333-1-11-1-*|-3333-3-3333-3-33-3-3--4--5--6--|
|-----------------------------------------|--------------------------------|
   ....   ....   ..   ....   ....   ..      ....   ....   ..


  Chorus Riff 1 (2x)


  Chorus Riff 2 (Both)
|-----------------------------------------------------------------|
|-----------------------------------------------------------------|
|-----------------------------------------------------------------|
|-------------------------------------------------------5--5------|
|-2------2----------2------2----------2------2----------3--3--5\4-|
|-0-0000-0-00000000-0-0000-0-00000000-0-0000-0-00000000-------3\2-|
|   ....   ........   ....   ........   ....   ........
|
|
|-------------------------------------------------------|
|-------------------------------------------------------|
|-------------------------------------------------------|
|-------------------------------------------------------|
|-2------2----------2------2----------2------2----------|
|-0-0000-0-00000000-0-0000-0-00000000-0-0000-0-00000000-|
|   ....   ........   ....   ........   ....   ........
|
|
|-----------------------------------|
|-----------------------------------|
|-----------------------------------|
|-5--5-------5--5-------5--5--------|
|-3--3--5-4--3--3--5-4--3--3--5-4-2-|
|-------3-2--------3-2--------3-2-0-|


   . = palm mute
   ~ = vibrato
   / = slide up
   \ = slide down
   p = pull off
   h = hammer on
   r = release
 ( ) = ghost note

  Visit MetalTabs.com for more metal tablature

bottom separator

Contact Us | Privacy Policy | Disclaimer | Legal Notice
Copyright © 2001-2014 MetalTabs.com. All Rights Reserved.