top separator

Home

Forum

What's New

Submit a Tab

FAQ

Links

Contact Us

Link to Us

MetalTabs.com logo

Bands

0-9

A

B

C

D

E

F

G

H

I

J

K

L

M

N

O

P

Q

R

S

T

U

V

W

X

Y

Z

Search

What

Where
 

Enter My Silence - "Six Nothing" Guitar Tab

Plain Text Version
More Enter My Silence Tabs

Hits: 3290
Rated: 3.83 out of 5 (6 votes)
Updated: 2003-12-28 05:23:20

 

By:

memnoch

sendpm.gif

email.gif

Important note
This tab is available online because we obtained explicit permission from Enter My Silence or their label.


#----------------------------------PLEASE NOTE---------------------------------#
#This file is the author's own work and represents their interpretation of the #
#song. You may only use this file for private study, scholarship, or research. #
#Unless specified otherwise, this is NOT an official tab from the band members.#
#------------------------------------------------------------------------------#

  Visit MetalTabs.com for more metal tablature
  
Song: Six Nothing
Band: Enter My Silence
Album: RemoteControlled Scythe


Tabbed by: Scott McConnery (cerebrus_scott@hotmail.com)

Tunning: C F A# E G c (2 steps down)


INTRO
|---------------------------------------------------------------------|
|---------------------------------------------------------------------|
|---------------------------------------------------------------------|
|-2-------------------------------------------------------------------|
|-2--7/10---10\9---9/14---14\9---9/10---10\5---5/9---9\7---7/9---9/10-|
|-0-------0------0------0------0------0------0-----0-----0-----0------|
          _      _      _      _      _      _     _     _     _


|-----------------------------------------------------------------------|
|-----------------------------------------------------------------------|
|-----------------------------------------------------------------------|
|-2---------------------------------------------------------------------|
|-2--7/10---10\9---9/14---14\9---9/10---10\5---5/9---9\7---7/9---9/10\7-|
|-0-------0------0------0------0------0------0-----0-----0-----0--------|
          _      _      _      _      _      _     _     _     _


|------------------------------------------------------------------|
|------------------------------------------------------------------|
|------------------------------------------------------------------|
|------------------------------------------------------------------|
|-7/10---10\9---9/14---14\9---9/10---10\5---5/9---9\7---7/9---9/10-|
|------0------0------0------0------0------0-----0-----0-----0------|
       _      _      _      _      _      _     _     _     _


(clean with some digital delay)
|---------------------------------------------------------------------|
|---------------------------------------------------------------------|
|---------------------------------------------------------------------|
|---------------------------------------------------------------------|
|-14\10---10\9---9/14---14\9---9/10---10\5---5/9---9\7---7/9---9/10\7-|
|---------------------------------------------------------------------|


|---------------------------------------------------------------------|
|---------------------------------------------------------------------|
|---------------------------------------------------------------------|
|---------------------------------------------------------------------|
|-14\10---10\9---9/14---14\9---9/10---10\5---5/9---9\7---7/9---9/10---|
|---------------------------------------------------------------------|


|-----------------------------------|
|-----------------------------------|
|-----------------------------------|
|-2----------------------------5--2-|
|-2----5h7---5h7---5h7---------5--2-|
|-0---0-----0-----0------000---3--0-|
      _     _     _      ___




VERSE
|----------------------------------------------------------------------|
|----------------------------------------------------------------------|
|----------------------------------------------------------------------|
|----------------------------------------------------------------------|
|---7/10---10\9---9/14---14\9---9/10---10\5---5/9---9\7---7/9---9/10\7-|
|-0------0------0------0------0------0------0-----0-----0-----0--------|
  _      _      _      _      _      _      _     _     _     _


|----------------------------------------------------------------------|
|----------------------------------------------------------------------|
|----------------------------------------------------------------------|
|----------------------------------------------------------------------|
|---7/10---10\9---9/14---14\9---9/10---10\5---5/9---9\7---7/9---9/10\7-|
|-0------0------0------0------0------0------0-----0-----0-----0--------|
  _      _      _      _      _      _      _     _     _     _

(Harmony over verse)
|--------------------------------------------------------------------|
|--------------------------------------------------------------------|
|--------------------------------------------------------------------|
|-7/10---10\9---9/14---14\9---9/10---10\5---5/9---9\7---7/9---9/10---|
|------------------------------------------------------------------7-|
|--------------------------------------------------------------------|


|--------------------------------------------------------------------|
|--------------------------------------------------------------------|
|--------------------------------------------------------------------|
|--------------------------------------------------------------------|
|---7/10---10\9---9/14---14\9---9/10---10\5---5/9---9\7---7/9---9/10-|
|-0------0------0------0------0------0------0-----0-----0-----0------|
  _      _      _      _      _      _      _     _     _     _




CHORUS

Guitar 1
|-------------------------------------------------------------------------------|
|-------------------------------------------------------------------------------|
|--------------------------------------------------12---11------------12---11---|
|----------------------------9----9-10-9----9-10-9----9----9-9-9-10-9----9----9-|
|-7---9-10-9---10-12-10---12---12--------12-------------------------------------|
|-------------------------------------------------------------------------------|
|
|
|Guitar 2
|-------------------------------------------------------------------------------|
|-------------------------------------------------------------------------------|
|-------------------------------------------5---------55555----4-------44444----|
|-2--------4---------5-------------55555----5---------55555----4-------44444----|
|-2--------4---------5-------------55555----3---------33333----2-------22222----|
|-0--------2---------3-------------33333----------------------------------------|


Guitar 1
|---------10--/12---\7---------/8----\7----\3------\-/5----\3-\2~---------------|
|-------------------------------------------------------------------------------|
|-9--11-12----------------------------------------------------------------------|
|-------------------------------------------------------------------------------|
|-------------------------------------------------------------------------------|
|-------------------------------------------------------------------------------|
|
|
|Guitar 2
|-------------------------------------------------------------------------------|
|-------------------------------------------------------------------------------|
|-------------------------------------------5---------55555----4-------44444----|
|-2--------4---------5-------------55555----5---------55555----4-------44444----|
|-2--------4---------5-------------55555----3---------33333----2-------22222----|
|-0--------2---------3-------------33333----------------------------------------|


Guitar 1
|-------------------------------------------------------------------------------|
|-------------------------------------------------------------------------------|
|--------------------------------------------------12---11------------12---11---|
|----------------------------9----9-10-9----9-10-9----9----9-9-9-10-9----9----9-|
|-7---9-10-9---10-12-10---12---12--------12-------------------------------------|
|-------------------------------------------------------------------------------|
|
|
|Guitar 2
|-------------------------------------------------------------------------------|
|-------------------------------------------------------------------------------|
|-------------------------------------------5---------55555----4-------44444----|
|-2--------4---------5-------------55555----5---------55555----4-------44444----|
|-2--------4---------5-------------55555----3---------33333----2-------22222----|
|-0--------2---------3-------------33333----------------------------------------|


Guitar 1
|---------10--/12---\7---------/8----\7----\3------\-/5----\3-\2~----/3--\2--\0-|
|-------------------------------------------------------------------------------|
|-9--11-12----------------------------------------------------------------------|
|-------------------------------------------------------------------------------|
|-------------------------------------------------------------------------------|
|-------------------------------------------------------------------------------|
|
|
|Guitar 2
|-------------------------------------------------------------------------------|
|-------------------------------------------------------------------------------|
|-------------------------------------------5---------55555----4-------44444----|
|-2--------4---------5-------------55555----5---------55555----4-------44444----|
|-2--------4---------5-------------55555----3---------33333----2-------22222----|
|-0--------2---------3-------------33333----------------------------------------|


Guitar 1
|------2h3---2h3---2h3--------------|
|-----------------------------------|
|-----------------------------------|
|------------------------------5--2-|
|------------------------------5--2-|
|------------------------000---3--0-|
|                        ___
|
|Guitar 2
|-----------------------------------|
|-----------------------------------|
|-----------------------------------|
|-2----------------------------5--2-|
|-2----5h7---5h7---5h7---------5--2-|
|-0---0-----0-----0------000---3--0-|
      _     _     _      ___




VERSE
|----------------------------------------------------------------------|
|----------------------------------------------------------------------|
|----------------------------------------------------------------------|
|----------------------------------------------------------------------|
|---7/10---10\9---9/14---14\9---9/10---10\5---5/9---9\7---7/9---9/10\7-|
|-0------0------0------0------0------0------0-----0-----0-----0--------|
  _      _      _      _      _      _      _     _     _     _


|----------------------------------------------------------------------|
|----------------------------------------------------------------------|
|----------------------------------------------------------------------|
|----------------------------------------------------------------------|
|---7/10---10\9---9/14---14\9---9/10---10\5---5/9---9\7---7/9---9/10\7-|
|-0------0------0------0------0------0------0-----0-----0-----0--------|
  _      _      _      _      _      _      _     _     _     _

(Harmony over verse)
|--------------------------------------------------------------------|
|--------------------------------------------------------------------|
|--------------------------------------------------------------------|
|-7/10---10\9---9/14---14\9---9/10---10\5---5/9---9\7---7/9---9/10---|
|------------------------------------------------------------------7-|
|--------------------------------------------------------------------|


|--------------------------------------------------------------------|-----------------------|
|--------------------------------------------------------------------|-----------------------|
|--------------------------------------------------------------------|-----------------------|
|--------------------------------------------------------------------|-2--2-------2--5--4--2-|
|---7/10---10\9---9/14---14\9---9/10---10\5---5/9---9\7---7/9---9/10-|-2--2-------2--5--4--2-|
|-0------0------0------0------0------0------0-----0-----0-----0------|-0--0-------0--3--2--0-|
  _      _      _      _      _      _      _     _     _     _




BRIDGE
|------------------------------------------------------------------------------------|
|------------------------------------------------------------------------------------|
|-7---77777-------------5---55555--------------7---77777-------------5---55555-------|
|-7---77777--8---88888--5---55555--5--5--7--7--7---77777--8---88888--5---55555--5--5-|
|-5---55555--8---88888--3---33333--5--5--7--7--5---55555--8---88888--3---33333--5--5-|
|------------6---66666-------------3--3--5--5-------------6---66666-------------3--3-|




SOLO RHYTHM (Guitar 2)
|------------------------------------------------------------------------------------------|
|------------------------------------------------------------------------------------------|
|-7---77777-------------5---55555--------------7---77777-------------5---55555-------------|
|-7---77777--8---88888--5---55555--5--5--7--7--7---77777--8---88888--5---55555-------------|
|-5---55555--8---88888--3---33333--5--5--7--7--5---55555--8---88888--3---33333--------3----|
|------------6---66666-------------3--3--5--5-------------6---66666-------------3--5-----5-|




SOLO (Guitar 1)
|------------------------------------------------------------------------------|
|-----------8-10-10-----------8-10-10-11--10--8------8-------------------------|
|-7---7-9-9---------7---7-9-9--------------------10-----10--12p10p9--10p9p7--9-|
|------------------------------------------------------------------------------|
|------------------------------------------------------------------------------|
|------------------------------------------------------------------------------|

|---------------------------------------------------------------|
|-----------8-10-10-/11---10---8---13---11---10---10---8---10~~-|
|-7---7-9-9-----------------------------------------------------|
|---------------------------------------------------------------|
|---------------------------------------------------------------|
|---------------------------------------------------------------|



REPEAT CHORUS



ENDING
|--------------------------------------------------------------------|
|--------------------------------------------------------------------|
|--------------------------------------------------------------------|
|--------------------------------------------------------------------|
|-7/10---10\9---9/14---14\9---9/10---10\5---5/9---9\7---7/9---9/10\7-|
|------0------0------0------0------0------0-----0-----0-----0--------|
       _      _      _      _      _      _     _     _     _


|--------------------------------------------------------------------|
|--------------------------------------------------------------------|
|--------------------------------------------------------------------|
|--------------------------------------------------------------------|
|-7/10---10\9---9/14---14\9---9/10---10\5---5/9---9\7---7/9---9/10\7-|
|------0------0------0------0------0------0-----0-----0-----0--------|
       _      _      _      _      _      _     _     _     _

(clean with some digital delay)
|---------------------------------------------------------------------|
|---------------------------------------------------------------------|
|---------------------------------------------------------------------|
|---------------------------------------------------------------------|
|-14\10---10\9---9/14---14\9---9/10---10\5---5/9---9\7---7/9---9/10\7-|
|---------------------------------------------------------------------|


|---------------------------------------------------------------------|
|---------------------------------------------------------------------|
|---------------------------------------------------------------------|
|---------------------------------------------------------------------|
|-14\10---10\9---9/14---14\9---9/10---10\5---5/9---9\7---7/9---9/10---|
|---------------------------------------------------------------------|


|-----------------------------------|
|-----------------------------------|
|-----------------------------------|
|-2----------------------------5--2-|
|-2----5h7---5h7---5h7---------5--2-|
|-0---0-----0-----0------000---3--0-|
      _     _     _      ___


THE END

  Visit MetalTabs.com for more metal tablature

bottom separator

Contact Us | Privacy Policy | Disclaimer | Legal Notice
Copyright © 2001-2014 MetalTabs.com. All Rights Reserved.