top separator

Home

Forum

What's New

Submit a Tab

FAQ

Links

Contact Us

Link to Us

MuSpy.com

MetalTabs.com logo

Bands

0-9

A

B

C

D

E

F

G

H

I

J

K

L

M

N

O

P

Q

R

S

T

U

V

W

X

Y

Z

Search

What

Where
 

Acid Bath - "The Morticians Flame" Guitar Tab

Plain Text Version
More Acid Bath Tabs

Hits: 3843
Rated: 2.50 out of 5 (2 votes)
Updated: 2003-12-28 05:18:51

 

Important note
We did our best to reach Acid Bath and ask for their permission to publish this tab. Unfortunately they did not respond to our requests or we could not find a way to contact them. This tab is available online until Acid Bath tells us to take it down.


#----------------------------------PLEASE NOTE---------------------------------#
#This file is the author's own work and represents their interpretation of the #
#song. You may only use this file for private study, scholarship, or research. #
#Unless specified otherwise, this is NOT an official tab from the band members.#
#------------------------------------------------------------------------------#

  Visit MetalTabs.com for more metal tablature
  
Band: Acid Bath.
Album: When the Kite String Pops
Song: The Mortician's Flame

Rotten Records 1994


 Tuning Standard D tuning with low D dropped to C.



Odd harmonics over the bass intro.  I can't quite figure them out.  Here's the rest of the
tune as close as I could get it.

 Riff 1.


 D|-----------------------------------------|
 A|-----------------------------------------|
 F|-----------------------------------------|
 C|-----8-7---7-------------8-7---7---------------|
 G|-5---6-5---5-8-7-3---5---6-5---5----------|
 C|-5------8----8-7-3---5-------88--8-7-3----|



 D|-----------------------------------------|
 A|-----------------------------------------|
 F|-----------------------------------------|
 C|-----------------------------------------|
 G|---66-5---5------------66-5---5----------|
 C|-5------88--887-3-sl--5-----88--887-3----|
 pm   ..   ..  ..         ..   ..  ..



 D|-----------------------------------------|
 A|-----------------------------------------|
 F|-----------------------------------------|
 C|-----------------------------------------|
 G|---6655--55-------------6655--55---------|
 C|-55----88--887733-sl--55----88--887733---|
 pm ................     ................

 Riff 2. (verse)

 D|-----------------------------------------|
 A|-----------------------------------------|
 F|-----------------------------------------|
 G|-----------------------------------------|
 C|-3--5-----------------3--5---------------|
 G|-3--5--let-ring-------3--5--let-ring-----|

 Riff 3.

 D|------------------------------|
 A|------------------------------|
 F|------------------------------|
 C|------------------------------|
 G|-0------1------5------4-------|
 C|-0-0000-1-1111-5-5555-4-4444--|
 pm   ....   ....   ....   ....

 Riff 4.

 D|-----------------------------|
 A|-----------------------------|
 F|-----------------------------|
 C|-----------------------------|
 G|-0------1-------------5-4-3--|
 C|-0-0000-1-1111-0-0000-5-4-3--|
 pm   ....   ....   ....

 D|--------------------------------------|
 A|--------------------------------------|
 F|--------------------------------------|
 C|--------------------------------------|
 G|-0------1-------------5-4-3--55-44-33-|
 C|-0-0000-1-1111-0-0000-5-4-3-----------|
 pm   ....   ....   ....

 Riff 5. Outro

 D|--------------------------------------|
 A|--------------------------------------|
 F|--------------------------------------|
 C|--------------------------------------|
 G|----6---5-----5------------------5----|
 C|-5--------8-----8---7-3--5---3---5----|

  Visit MetalTabs.com for more metal tablature

bottom separator

Contact Us | Privacy Policy | Disclaimer | Legal Notice
Copyright © 2001-2014 MetalTabs.com. All Rights Reserved.