top separator

Home

Forum

What's New

Submit a Tab

FAQ

Links

Contact Us

Link to Us

MuSpy.com

MetalTabs.com logo

Bands

0-9

A

B

C

D

E

F

G

H

I

J

K

L

M

N

O

P

Q

R

S

T

U

V

W

X

Y

Z

Search

What

Where
 

Acid Bath - "Venus Blue" Guitar Tab

Plain Text Version
More Acid Bath Tabs

Hits: 9970
Rated: 5.00 out of 5 (7 votes)
Updated: 2003-12-28 05:16:24

 

Important note
We did our best to reach Acid Bath and ask for their permission to publish this tab. Unfortunately they did not respond to our requests or we could not find a way to contact them. This tab is available online until Acid Bath tells us to take it down.


#----------------------------------PLEASE NOTE---------------------------------#
#This file is the author's own work and represents their interpretation of the #
#song. You may only use this file for private study, scholarship, or research. #
#Unless specified otherwise, this is NOT an official tab from the band members.#
#------------------------------------------------------------------------------#

  Visit MetalTabs.com for more metal tablature
  
Acid Bath
Venus Blue
Paegan Terrorism Tactics

Rotten Records 1996

The entire song is tuned down a whole step.

Riff 1: Intro clean

D|--------------------------------------------------------------|
A|--------------------------------------------------------------|
F|--------------------------------------------------------------|
C|---5h6-6-6-6-5------5------5----------------------------------|
G|-----------------6------6--------5---5----------------8-------|
D|-------------------------------6---6------6-s/-8--8-8-----8---|



D|-------------------------------------------------------------|
A|-------------------------------------------------------------|
F|-------------------------------------------------------------|
C|---5h6-6-6-6-5-----5---5-------------------------------------|
G|-----------------6---6---6-----s/-8-8-8-8-s/10-10-10-10-10---|
D|-------------------------------------------------------------|

Riff 2:

D|-------------------------------------------------------------------|
A|-------------------------------------------------------------------|
F|-------------------------------------------------------------------|
C|---5--6-6-6-6-5---5---5------8---8-8-8---8----8----10-10-10-10-10--|
G|----------------6---6---6----8---8-8-8---8----8-s/-10-10-10-10-10--|
D|-----------------------------6---6-6-6---6----6-s/-8--8--8--8--8---|
pm                                         .

Riff 3:

D|-----------------------------------------------------------|
A|-----------------------------------------------------------|
F|-----------------------------------------------------------|
C|--10-10-10-10-10-10---5---5-5---8-8-8---8-s/-10-10-10------|
G|--10-10-10-10-10-10---5---5-5---8-8-8---8-s/-10-10-10------|
D|--8--8--8--8--8--8----3---3-3---6-6-6---6-s/-8--8--8-------|

Riff 3

D|-------------------------------------------|
A|-------------------------------------------|
F|-------------------------------------------|
C|-3-5-5-5-5-3-6-6-6-6-3-5-5-5-5-4-6-6-6-6---|
G|-3-5-5-5-5-3-6-6-6-6-3-5-5-5-5-4-6-6-6-6---|
D|-1-3-3-3-3-1-4-4-4-4-1-3-3-3-3-2-4-4-4-4---|


Listen to the song for distortion and clean tones

  Visit MetalTabs.com for more metal tablature

bottom separator

Contact Us | Privacy Policy | Disclaimer | Legal Notice
Copyright © 2001-2014 MetalTabs.com. All Rights Reserved.