top separator

Home

Forum

What's New

Submit a Tab

FAQ

Links

Contact Us

Link to Us

MetalTabs.com logo

Bands

0-9

A

B

C

D

E

F

G

H

I

J

K

L

M

N

O

P

Q

R

S

T

U

V

W

X

Y

Z

Search

What

Where
 

My Dying Bride - "Apocalypse Woman" Guitar Tab

Plain Text Version
More My Dying Bride Tabs

Hits: 5003
Rated: 4.00 out of 5 (2 votes)
Updated: 2001-06-04 07:56:12

 

Important note
This tab is available online because we obtained explicit permission from My Dying Bride or their label.


#----------------------------------PLEASE NOTE---------------------------------#
#This file is the author's own work and represents their interpretation of the #
#song. You may only use this file for private study, scholarship, or research. #
#Unless specified otherwise, this is NOT an official tab from the band members.#
#------------------------------------------------------------------------------#

  Visit MetalTabs.com for more metal tablature
  
Taken with permission from www.MyDyingBride.org

riff A
|-----------1-------------------0-----|
|-----3---3---------------1---1-------|
|---2---2---------------2---2---------|
|-0-------------------0---------------|
|-------------------------------------|
|-------------------------------------|

riff B
|-------------------------------------------------------------
|-------------------------------------------------------------
|-------------------------------------------------------------
|------------7--------------------7-------------------7-------
|-7-7-7-7-7--5---------7-7-7-7-7--5--------7-7-7-7-7--5-------
|-------------------------------------------------------------
    . . . . .            . . . . .           . . . . .  palm mute
|----------------|
|----------------|
|----------------|
|-5--5--8--8-----|
|-3--3--6--6--7--|
|-------------5--|

riff C
|--------------------------------------|
|--------------------------------------|
|--------------------------------------|
|--9--9--7--7--7--7--5--5--8--8--10----|
|--7--7--5--5--5--5--3--3--6--6--8-----|
|--------------------------------------|

|--------------------------------------|
|--------------------------------------|
|--------------------------------------|
|--9--9--7--7--7--7--5--5--8--8--------|
|--7--7--5--5--5--5--3--3--6--6--7-----|
|--------------------------------5-----|

SOLO - 1st guitar:
|-----------------------------------------------------------------
|-----10-8-10-10^-10-8-10--------------------10-8-10-10^-10-8-10--
|-7------------------------7---8-----10---7-----------------------
|-----------------------------------------------------------------
|-----------------------------------------------------------------
|-----------------------------------------------------------------

|-------------10---8--10--8-------------------10---8--10--8-------
|----8--10-11---------------8h10----------------------------8h10--
|-7------------------------------7--8-----------------------------
|--------------------------------------10--8----------------------
|-----------------------------------------------------------------
|-----------------------------------------------------------------

|--8---10---11---10----------------|
|---------------------8~~~~~~~-----|
|----------------------------------|
|----------------------------------|
|----------------------------------|
|----------------------------------|

SOLO - 2nd guitar:
|--------------------------------------------------------|
|--------------------------------------------------------|
|--------------------------------------------------------|
|-7---7-7---8---10--1010--8---7---7-7---8---12---10--8---|
|-5---5-5---6---8---8-8---6---5---5-5---6---10---8---6---|
|-5-------------8-------------5--------------------------|

Notes : tune down 1,5 step (C sharp)

   . Palm muting          \ Slide down
   ^ Bend		  / Slide up
   h Hammer on           w\ Whammy bar
   p Pull off		  ~ Vibrato
   t Right hand tapping


Tabbed by Andrej (arnaut@gvp.bohem-net.cz)

  Visit MetalTabs.com for more metal tablature

bottom separator

Contact Us | Privacy Policy | Disclaimer | Legal Notice
Copyright © 2001-2014 MetalTabs.com. All Rights Reserved.