top separator

Home

Forum

What's New

Submit a Tab

FAQ

Links

Contact Us

Link to Us

MuSpy.com

MetalTabs.com logo

Bands

0-9

A

B

C

D

E

F

G

H

I

J

K

L

M

N

O

P

Q

R

S

T

U

V

W

X

Y

Z

Search

What

Where
 

Naglfar - "Emerging From Her Weepings" Guitar Tab

Plain Text Version
More Naglfar Tabs

Hits: 5526
Rated: 3.50 out of 5 (4 votes)
Updated: 2003-12-26 06:19:49

 

Important note
This tab is available online because we obtained explicit permission from Naglfar or their label.


#----------------------------------PLEASE NOTE---------------------------------#
#This file is the author's own work and represents their interpretation of the #
#song. You may only use this file for private study, scholarship, or research. #
#Unless specified otherwise, this is NOT an official tab from the band members.#
#------------------------------------------------------------------------------#

  Visit MetalTabs.com for more metal tablature
  
Emerging From Her Weepings
---------------------------
By Naglfar
From : Vittra
Music and Lyrics by Naglfar
Tab goreywrotica
E-Mail: goreywrotica @aol.com

Notation:
..=palm mute
tr=trill
h=hammer on
>=release
x=dump
t=tap
/=slide up
\=slide down

Note:
this is the first time ive tabbed anything using my computer so please
excuse any spacing errors i make...im still working on the outros so
they arent quite perfect...this song is played in standard E tuning.
________________________________________________________________________
Riff A - Guitar 1 - repeat 6 times

[--------------------------------------------------------------0---]
[----0-0-----0-0-----0-0-----0-0-----0-0-----0-0-----0-0-----0--0--]
[---4-4-4---4-4-4---5-5-5---5-5-5---4-4-4---4-4-4---3-3-3---3-3--3-]
[--4-----4-4-----4-5-----5-5-----5-4-----4-4-----4-3-----3-3-------]
[-2-------2-------3-------3-------2-------2-------1-------1--------]
[------------------------------------------------------------------]

Riff A - Guitar 2 - begins with guitar 1 the 3rd time - repeat 4 times

[--------------------------------------------------------------0---]
[---------------------------------------------------------------0--]
[-4---------------5----------------4----------------3------------3-]
[-4---------------5----------------4----------------3--------------]
[-2---------------3----------------2----------------1--------------]
[------------------------------------------------------------------]

Riff B - Guitar 1 - repeat 3 times

[-------------------------------------------------------------------------]
[-------------------------------------------------------------------------]
[-------------------------------------------------------------------------]
[-22222222-55555555-44444444-00000000-22222222-55555555-44444444-00000000-]
[-------------------------------------------------------------------------]
[-------------------------------------------------------------------------]



[----------------------------------------------------------------------------]
[----------------------------------------------------------------------------]
[---------5555-4444-2222-0000-2222-4444--------5555-4444-2222-0000-----------]
[------------------------------------------------------------------4444-0000-]
[-33333333-----------------------------33333333------------------------------]
[----------------------------------------------------------------------------]

Riff B - Guitar 2 - Repeat 3 times

[---------------------------------------------------------------------------]
[---------------------------------------------------------------------------]
[---------------------------------------------------------------------------]
[-2----------2------------10---------10------2--------2------10--------10---]
[-2----------2------------10---------10------2--------2------10--------10---]
[-0----------0------------8----------8-------0--------0------8---------8----]

Riff C - tremolo picked(32nd notes) - Guitar 1

[----------------------------------------]
[----------------------------------------]
[------------------4-0-------------------]
[-2---4--4h5-2-4-2-----4--4h5h7-5-4-2--4-]
[----------------------------------------]
[----------------------------------------]

Riff C - Guitar 2 - (32nd notes)

[------------------7---------------------]
[-5---7--7h8-5-7-5--8-7-7h8h10--8-7-5--7-]
[----------------------------------------]
[----------------------------------------]
[----------------------------------------]
[----------------------------------------]


Bridge Riff - Guitar 1 - Repeat 4 Times

[-------------------------------------------]
[-------------------------------------------]
[-------4-2-0-2-0-0----------4-2-0-2-0-5555-]
[-2-222----------4-4-0-2-222----------4-----]
[-------------------------------------------]
[-------------------------------------------]

[----------------------------------------------]
[----------------------------------------------]
[------4-2-0-2-0-0----444444-222222------------]
[-2-222---------4-4-0---------------55-44-00-2-]
[----------------------------------------------]
[----------------------------------------------]

Bridge Riff - Guitar 2 - Repeat 4 times

[----------------------------------]
[----------------------------------]
[--------------------7-5/7-5-4-5-5-]
[-2--9/10-9-2-9/10-9-7-5/7-5-4-5-5-]
[-2--9/10-9-2-9/10-9-5-3/5-3-2-3-3-]
[-0--7/8--7-0-7/8--7---------------]


Chorus Riff

[--------------------------------------------------------]
[-------------------------5555-8888-7777-----------------]
[-----4444-5555-4444-------------------------------------]
[-2222---------------2222----------------2-5-4-2-4-5-4-0-]
{--------------------------------------------------------]
[--------------------------------------------------------]

Play Riff A 3 Times

Play Riff C 2 times (WITHOUT TREMOLO)

Play Riff B 4 Times

PLay Chorus Riff 4 Times

Riff D - Guitar 1 (still working on Guitar 20

[----------------------------------------------]
[----------------------------------------------]
[----------------------------------------------]
[---7-5-7-5-----7-5-7-5----7-5-7-5---5-7-5-7-8-]
[-5---------8-7--------7-5--------8-7----------]
[----------------------------------------------]

Outro( still working on this one too) - Also tremolo picking ..Guitar 1


[---------------------------------------------------------------]
[---------------------------------------------------------------]
[---2---2------0------------------------------------------------]
[-0---0----------3-2----3--2----0----2----0-----2---3--5--3--5--]
[---------------------------------------------------------------]
[---------------------------------------------------------------]

[--------------------------------------------------------]----------------]
[--------------------------------------------------------]----------------]
[--------7---5-------------------------------------------]-10--9----------]
[-7--------------5----7--5---7--8-7-3--2-0-2-3-2-5-3-2-3-]--------7-------]
[--------------------------------------------------------]-----------8--7-]
[--------------------------------------------------------]----------------]
                                                           Repeat and Fade

Outro Guitar 2

[----------------]------------]
[----------------]------------]
[----------------]------------]
[-12--10--8--10--]7--5--2--3--]
[-12--10--8--10--]8--7--3--5--]
[-10--8---6--8---]------------]
                  trem pick repeat and fade

Im pretty sure i got something wrong but i cant figure out what it is..if any
finds it ...please e mail me at the above adress so that i can make corrections

  Visit MetalTabs.com for more metal tablature

bottom separator

Contact Us | Privacy Policy | Disclaimer | Legal Notice
Copyright © 2001-2014 MetalTabs.com. All Rights Reserved.