top separator

Home

Forum

What's New

Submit a Tab

FAQ

Links

Contact Us

Link to Us

MuSpy.com

MetalTabs.com logo

Bands

0-9

A

B

C

D

E

F

G

H

I

J

K

L

M

N

O

P

Q

R

S

T

U

V

W

X

Y

Z

Search

What

Where
 

Black Widow (SK) - "An Old Hippie" Guitar Tab

Plain Text Version
More Black Widow (SK) Tabs

Hits: 2978
Rated: 2.33 out of 5 (3 votes)
Updated: 2003-12-26 06:17:05

 

Important note
We did our best to reach Black Widow (SK) and ask for their permission to publish this tab. Unfortunately they did not respond to our requests or we could not find a way to contact them. This tab is available online until Black Widow (SK) tells us to take it down.


#----------------------------------PLEASE NOTE---------------------------------#
#This file is the author's own work and represents their interpretation of the #
#song. You may only use this file for private study, scholarship, or research. #
#Unless specified otherwise, this is NOT an official tab from the band members.#
#------------------------------------------------------------------------------#

  Visit MetalTabs.com for more metal tablature
  
BLACK WIDOW - "An Old Hippie"
	From the album "Hard and Heavy"
	Written by Peter Macko

Hey, this is my very first tab!!! There may be a lot of errors; if you have some
comments or corrections feel free to email me to pemac@pobox.sk (please do it!).
Despite all that I think it sounds good :) just use the actual song to get the
right timing.

Standard tuning: e-B-G-D-A-E


INTRO

(do not use Palm Mute)

e:------------------------------------|
B:------------------------------------|
G:--4--6--4--6--4---------------------|
D:--4--4--4--4--4------(repeat 3x)----|
A:-----------------6------------------|
E:-----------------4------------------|


RIFF 1

(no PM)

e:-----------------------|
B:-----------------------|
G:-----------------------|
D:-6-8-6---(repeat 3x)---|
A:-6-6-6-----------------|
E:-4-4-4-----------------|


Repeat RIFF 1


RIFF 2

(no PM)

e:-----------|
B:-----------|
G:-----------|
D:-8-8-8-8---|
A:-8-8-8-8---|
E:-6-6-6-6---|


VERSE

(use PM only where noted)

e:------------------------------|
B:------------------------------|
G:------------------------------|
D:---------6-8p6---(repeat 6x)--|
A:-6-6-6-6-6-6p6----------------|
E:-4-4-4-4-4-4p4----------------|
   PM.....


Repeat RIFF 1


Repeat RIFF 2


Repeat VERSE


CHORUS

(use PM only where noted)

e:-----------------------------------------------------------------|
B:-----------------------------------------------------------------|
G:-4--6--4--6--4---------------------------------------------------|
D:-4--4--4--4--4-------------------------------------(repeat 2x)---|
A:----------------4-6-6-6-6-6-6-6--4-6-6-6-6-6-6-6-----------------|
E:----------------2-4-4-4-4-4-4-4--2-4-4-4-4-4-4-4-----------------|
   PM...........


CHORUS ENDING 1

(use PM only where noted)

e:--------------------------------------------------------------|
B:--------------------------------------------------------------|
G:-4--6--4--6--4------------------------------------------------|
D:-4--4--4--4--4------------------------------------------------|
A:----------------8-8-8-8-8-8-8-8--(let it sound for a while)---|
E:----------------6-6-6-6-6-6-6-6-------------------------------|
   PM...........


Repeat FILL 1


Repeat FILL 2


Repeat VERSE


Repeat CHORUS


CHORUS ENDING 2

(use PM)

e:-----------------|
B:-----------------|
G:-4--6--4--6--4---|
D:-4--4--4--4--4---|
A:-----------------|
E:-----------------|


Repeat FILL 1


GUITAR SOLO

Guitarists of Black Widow always improvise solo,
so here you can play whatever you want ;)


GUITAR SOLO BACKGROUND

(no PM)

e:------------------------|
B:------------------------|
G:------------------------|
D:-6-8-6---(repeat 11x)---|
A:-6-6-6------------------|
E:-4-4-4------------------|


Repeat CHORUS


CHORUS ENDING 3

(use PM only where noted)

e:---------------------------------------------------|
B:---------------------------------------------------|
G:-4--6--4--6--4-------------------------------------|
D:-4--4--4--4--4-------------------------------------|
A:----------------4-6-6-6-6-6-6-6--4-6-6-6-6-6-6-6---|
E:----------------2-4-4-4-4-4-4-4--2-4-4-4-4-4-4-4---|
   PM...........


OUTRO

Play following Blues with no distortion:

G# G# G# G# C# C# G# G#

Use the Swing rhythm: Down Pause Down Mute Up Down Pause Down Mute Up

  Visit MetalTabs.com for more metal tablature

bottom separator

Contact Us | Privacy Policy | Disclaimer | Legal Notice
Copyright © 2001-2014 MetalTabs.com. All Rights Reserved.