top separator

Home

Forum

What's New

Submit a Tab

FAQ

Links

Contact Us

Link to Us

MuSpy.com

MetalTabs.com logo

Bands

0-9

A

B

C

D

E

F

G

H

I

J

K

L

M

N

O

P

Q

R

S

T

U

V

W

X

Y

Z

Search

What

Where
 

Grip Inc. - "The Summoning" Guitar Tab

Plain Text Version
More Grip Inc. Tabs

Hits: 4084
Rated: 5.00 out of 5 (1 vote)
Updated: 2003-12-26 06:01:53

 

By:

sendpm.gif

email.gif

Important note
We did our best to reach Grip Inc. and ask for their permission to publish this tab. Unfortunately they did not respond to our requests or we could not find a way to contact them. This tab is available online until Grip Inc. tells us to take it down.


#----------------------------------PLEASE NOTE---------------------------------#
#This file is the author's own work and represents their interpretation of the #
#song. You may only use this file for private study, scholarship, or research. #
#Unless specified otherwise, this is NOT an official tab from the band members.#
#------------------------------------------------------------------------------#

  Visit MetalTabs.com for more metal tablature
  
                                  THE SUMMONING
                            (As recorded by GRIP INC.
                           from the 1997 album Nemesis)
                            VERSION 1.0 - october 2003


Transcribed by Cristi Rachitovan
mail: decietful@hotmail.com
IRC:  undernet's #metal as "Stromblad"

... = palm mute         h = hammer-on       ah = artificial harmonic
/,\ = slide             p = pull-off        nh = natural harmonic
~   = vibrato           " = tremolo pick    <  = fade in

Ok, now i wont tab every little detail that's in this song. This is how the
riffs are played most of times. If Sorychta played an art. harm. on 4th
repeat of a riff i didn't bother to write that down. My goal is to write
a correct, as short and as easy to read as possible transcription.

Tune to 1 whole step down (DGCFAD).

INTRO (w/ wah-wah pedal & some flange effect)

D|--------------10----------------------10-----------|
A|--12----------------------12-----------------------|
F|-----12-11-12----12-11-12----12-11-12----12-11-12--|
C|---------------------------------------------------|
G|---------------------------------------------------|
D|---------------------------------------------------|

D|--------------10----------------------10-----------|
A|--12----------------------12-----------------------|
F|-----12-11-12----12-11-12----12-11-12----12-11-12--|
C|---------------------------------------------------|
G|---------------------------------------------------|
D|---------------------------------------------------|

D|-------------------------------------------------|
A|--12---------------------------------------------|
F|-----12-11-12-11h12p11p9-11-9-7-9-7-6-7-6-4-6-4--|
C|-------------------------------------------------|
G|-------------------------------------------------|
D|-------------------------------------------------|

D|-------------------------------------------------|
A|-------------------------------------------------|
F|--3-4-3------------------------------------------|
C|--------5-8-5-4-5-4-3-4-5-4-3-4-5-4-3-4-4-4-4----|
G|-------------------------------------------------|
D|-------------------------------------------------|


RIFF A (4x then 4x with LEAD A)

D|-----------------------------------|
A|-----------------------------------|
F|-----------------------------------|
C|-----------------------------------|
G|------4/5-4-4-4-4-----4/5----------|
D|--2/3-----2-2-2-2-2/3-----0-0-3-0--|
            .......


LEAD A (0:28) (played 2x over RIFF A)
D|------------------------------------------------------|
A|------------------------------------------------------|
F|--6~-7~--6-7p6---6-----7-9--6~-7~--6-7p6---6----------|
C|---------------9---7/9-------------------9---7/9------|
G|-------------------------------------------------10~--|
D|------------------------------------------------------|


RIFF B (0:43) (play it 1.5 times)

D|--------------------------------------|
A|--------------------------------------|
F|--/14~-14---9-10~-10-/12-10-9-10-7----| Guitar I
C|--------------------------------------|
G|--------------------------------------|
D|--------------------------------------|
 |                                      |
D|--------------------------------------|
A|--------------------------------------|
F|--------------------------------------| Guitar II
C|--------------------------------------|
G|---5/7-7-7-7----7/8--8-8-8-7-8-7-5----|
D|---3/5-5-5-5--0-5/6--6-6-6-5-6-5-3----|
                .

D|--------------------------------------|
A|--------------------------------------|
F|--/14~-14---9-10~-10-/12-10-9-10-7----| G I
C|--------------------------------------|
G|--------------------------------------|
D|--------------------------------------|
 |                                      |
D|--------------------------------------|
A|--------------------------------------|
F|--------------------------------------| G II
C|--------------------------------------|
G|---5/7-7-7-7----7/8--8-8-8-10101010---|
D|---3/5-5-5-5--0-5/6--6-6-6-8-8-8-8----|
                .

play RIFF A 4x
play RIFF A + LEAD A 4x
Now comes the drums + keyboards part.


LEAD B (1:37) - This part is very cool imo.

D|---------------------------------------------------------------------------|
A|--10-12~--15-17~\--14-15~--/17-15-14h15p14~---15~--10-12~\--/8~--8-7h8p7~--|
F|---------------------------------------------------------------------------|
C|---------------------------------------------------------------------------|
G|---------------------------------------------------------------------------|
D|---------------------------------------------------------------------------|

play RIFF A 4x
play RIFF A + LEAD A 4x
drums & keys again
play LEAD B


RIFF C (2:46) Play this 4x.

D|-----------------------------------|
A|-----------------------------------|
F|-----------------------------------|
C|-----------------------------------|
G|--5-4-2-5-4-2-5-4-2-5-4-2-5-2-4----|
D|--3-2-0-3-2-0-3-2-0-3-2-0-3-0-2----|


RIFF D (3:00) Repeat the whole thing 2.75 times and use a pretty wide vibrato on
              highlighted notes.

D|-------------------------------------------------|
A|-------------------------------------------------|
F|-------------------------------------------------|
C|-------------------------------------------------|
G|-----ah--------------4-5----ah--------------4-5--|
D|--2~-3~-2--3-2-0-2-3-----2~-3~-2--3-2-0-2-3------|

D|-------------------------------------------------|
A|-------------------------------------------------|
F|-------------------------------------------------|
C|-------------------------------------------------|
G|-----ah--------------7-8----ah--------------7-8--|
D|--5~-6~-5--6-5-3-5-6-----5~-6~-5--6-5-3-5-6------|

play RIFF A + LEAD A 4x

Fade out with this part of the intro:

D|--------------10----------------------10-----------|
A|--12----------------------12-----------------------|
F|-----12-11-12----12-11-12----12-11-12----12-11-12--|
C|---------------------------------------------------|
G|---------------------------------------------------|
D|---------------------------------------------------|

Cheers, Grip Inc. owned \m/

  Visit MetalTabs.com for more metal tablature

bottom separator

Contact Us | Privacy Policy | Disclaimer | Legal Notice
Copyright © 2001-2014 MetalTabs.com. All Rights Reserved.