top separator

Home

Forum

What's New

Submit a Tab

FAQ

Links

Contact Us

Link to Us

MuSpy.com

MetalTabs.com logo

Bands

0-9

A

B

C

D

E

F

G

H

I

J

K

L

M

N

O

P

Q

R

S

T

U

V

W

X

Y

Z

Search

What

Where
 

Bethlehem - "Tagebuch einer Totgeburt" Guitar Tab

Plain Text Version
More Bethlehem Tabs

Hits: 7788
Rated: 4.67 out of 5 (3 votes)
Updated: 2004-07-14 04:27:47

 

By:

Decrepify

sendpm.gif

email.gif

Important note
We did our best to reach Bethlehem and ask for their permission to publish this tab. Unfortunately they did not respond to our requests or we could not find a way to contact them. This tab is available online until Bethlehem tells us to take it down.


#----------------------------------PLEASE NOTE---------------------------------#
#This file is the author's own work and represents their interpretation of the #
#song. You may only use this file for private study, scholarship, or research. #
#Unless specified otherwise, this is NOT an official tab from the band members.#
#------------------------------------------------------------------------------#

  Visit MetalTabs.com for more metal tablature
  
Bethlehem - Tagebuch einer Totgeburt
from "Dictius Te Necare" (1996)
band's site: http://www.angelfire.com/ego/bethlehem/
Style: black-doom "dark" metal
tabbed by Tuomas Sahlsten 2003
any comments, changes or anything
can be sended to tuomas_sahlsten@hotmail.com
this uses normal EADGBe tuning.

Small update 13.7.04

Specials:
/ = slide up
~ = let ring very long

Riff 1
|-----------------------------------------|
|-----------------------------------------|
|-----------------------------------------|
|-----------------------------------------|
|-7-777-555-------000-------000-----------|
|-----------3-333-----3-333-----0-000-0-0-|

Riff 2
|---------------------------------------------|
|---------------------------------------------|
|---------------------------------------------|
|---------------------------------------------|
|-7-777-555-------000-------000---------------|
|-----------3-333-----3-333-----0-000-0-000-0-|

Riff 3
|-----:-----:-----:-----|
|-----:-----:-----:-----|
|-----:-----:-----:-----|
|-----:-----:-----:-----|
|---3-:-7-0-:---3-:-2---|
|-5---:-----:-3---:---0-|

Riff 4
|--------------------------------------------|
|--------------------------------------------|
|--------------------------------------------|
|--------------------------------------------|
|-0-33-3-00-0-55-5--------33-3------55-5/7-3-|
|------------------55/3-3------33-3----------|

Riff 5
|-------------|
|-------0-----|
|-----5---5---|
|---7-------7-|
|-0-----------|
|-------------|

Riff 6
|-------------------------------------------------|
|-------8-----------8-----------0-----------0-----|
|-----5---5-------5---5-------5---5-------5---5---|
|---7-------7---7-------7---7-------7---7-------7-|
|-0-----------0-----------0-----------0-----------|
|-------------------------------------------------|

Riff 7
|----|
|----|
|----|
|----|
|-0~-|
|----|

Play in order

Riff 1 acoustic guitar
Riff 2 acoustic and electric guitar
Riff 1 acoustic and electric guitar
Riff 2 acoustic and electric guitar
Riff 1 acoustic and electric guitar
Riff 3 (x2) acoustic guitar
Riff 4 (x4) electric guitar
Riff 5 (x4) acoustic guitar
Riff 6 (x12) acoustic guitar
Riff 7 acoustic guitar

This tab should be complete but only bass riff at end of this song is missing.

  Visit MetalTabs.com for more metal tablature

bottom separator

Contact Us | Privacy Policy | Disclaimer | Legal Notice
Copyright © 2001-2014 MetalTabs.com. All Rights Reserved.