top separator

Home

Forum

What's New

Submit a Tab

FAQ

Links

Contact Us

Link to Us

MetalTabs.com logo

Bands

0-9

A

B

C

D

E

F

G

H

I

J

K

L

M

N

O

P

Q

R

S

T

U

V

W

X

Y

Z

Search

What

Where
 

Accept - "Losers And Winners" Bass Tab

Plain Text Version
More Accept Tabs

Hits: 5306
Rated: 2.50 out of 5 (2 votes)
Updated: 2003-12-07 08:42:58

 

Important note
This tab is available online because we obtained explicit permission from Accept or their label.


#----------------------------------PLEASE NOTE---------------------------------#
#This file is the author's own work and represents their interpretation of the #
#song. You may only use this file for private study, scholarship, or research. #
#Unless specified otherwise, this is NOT an official tab from the band members.#
#------------------------------------------------------------------------------#

  Visit MetalTabs.com for more metal tablature
  
Accept - Losers And Winners Bass Tab
Author/Artist:Accept
Title: Balls To The Wall
Album: Balls To The Wall - 1983
Transcribed by: Korgull With The Help of Manolo Wedawn
Email: blackdmon2002@yahoo.es
Date: 03-04/October/2003
Note: This is my first Tabs. About the timimg just listen this amazing song.
Any correction are welcome.
So Enjoy this one.


  INTRO                       RIFF 1
G|----------------|----------|-------------------------------------------|
D|----------------|----------|-------------------------------------------|
A|----------------|-10-9-5---|--7---7---5----7--------7---7----3----5----|
E|0-0-0-0-0-0-0-0-|--------0-|0--00--00---00--0000-00--00---00---00--532-|

G|----------------------------------------|
D|----------------------------------------|
A|---7---7---5----7--------7---7---10-9-5-|
E|00--00--00---00--0000-00--00--00--------|

  VERSE
G|----------------------------------------------------------------|
D|----------------------------------------------------------------|
A|---------------------5-------------------------------3----5---5-|
E|0000000000000000-5h7----7-5-3-0-00000000000000000-3h5--5h7--7---|

G|-------------------------------------------------------|
D|-------------------------------------------------------|
A|-----------------10--9--5--7/------------------5--3--0-|
E|0000000000000000--------------0000000000000000---------|

  PRE-CHORUS
G|-------------------------------------------------|
D|------------------474----------------------------|
A|2222222222222222/4----0-22222222222222222222220--|
E|-------------------------------------------------|

RIFF 1
G|--------------------------------------------|
D|--------------------------------------------|
A|---7---7---5----7--------7---7----3----5----|
E|00--00--00---00--0000-00--00---00---00--532-|

G|----------------------------------------|
D|----------------------------------------|
A|---7---7---5----7--------7---7---10-9-5-|
E|00--00--00---00--0000-00--00--00--------|

  VERSE
G|----------------------------------------------------------------|
D|----------------------------------------------------------------|
A|---------------------5-------------------------------3----5---5-|
E|0000000000000000-5h7----7-5-3-0-00000000000000000-3h5--5h7--7---|

G|-------------------------------------------------------|
D|-------------------------------------------------------|
A|-----------------10--9--5--7/------------------5--3--0-|
E|0000000000000000--------------0000000000000000---------|

  PRE-CHORUS 2
G|---------------------------------------------------|
D|------------------474------------------------------|
A|2222222222222222/4----0-2222222222222222222222-5/0-|
E|---------------------------------------------------|

  CHORUS
G|-----------------------------------------------------|
D|-----------------------------------------54242-------|
A|-------3---3-------3-5------------3--3--------35-----|
E|0000003---3--333333-----5\-0000003--3---3--------8\0-|

G|-----------------------------------------------------|
D|-----------------------------------------------------|
A|-------3---3-------3-5------------3--3------3-2------|
E|0000003---3--333333-----5\-0000003--3---3-0----------|

RIFF 1
G|--------------------------------------------|
D|--------------------------------------------|
A|---7---7---5----7--------7---7----3----5----|
E|00--00--00---00--0000-00--00---00---00--532-|

G|----------------------------------------|
D|----------------------------------------|
A|---7---7---5----7--------7---7---10-9-5-|
E|00--00--00---00--0000-00--00--00--------|

  VERSE
G|----------------------------------------------------------------|
D|----------------------------------------------------------------|
A|---------------------5-------------------------------3----5---5-|
E|0000000000000000-5h7----7-5-3-0-00000000000000000-3h5--5h7--7---|

G|-------------------------------------------------------|
D|-------------------------------------------------------|
A|-----------------10--9--5--7/------------------5--3--0-|
E|0000000000000000--------------0000000000000000---------|

  PRE-CHORUS
G|---------------------------------------------------|
D|------------------474------------------------------|
A|2222222222222222/4----0-2222222222222222222222-2-0-|
E|---------------------------------------------------|

  CHORUS W/SOLO
G|-----------------------------------------------------|
D|-----------------------------------------54242-------|
A|-------3---3-------3-5------------3--3--------35-----|
E|0000003---3--333333-----5\-0000003--3---3--------8\0-|

G|------------------------------------------------------------------------------------|
D|------------------------------------------------------------------------------------|
A|-------3---3-------3-5------------3--3------332-332-----332-2222222222222222----2-22|
E|0000003---3--333333-----5\-0000003--3---3-0---------332---------------------2-22----|

  RIFF 2 "Hans Zach...."
G|-------------------------------------------------------------|
D|-------------------------------------------------------------|
A|567-777777777777-5-7-777777777777-5-7-777777777777-5---------|
E|-----------------------------------------------------6-------|

G|--------------------------------------------------------------------------|
D|--------------------------------------------------------------------------|
A|5-7-777777777777-5-7-777777777777-5-7-777777777777-5-7-777777777777-5-3-0-|
E|--------------------------------------------------------------------------|

  PRE-CHORUS
G|-------------------------------------------------|
D|------------------474----------------------------|
A|2222222222222222/4----0-22222222222222222222220--|
E|-------------------------------------------------|

  CHORUS
G|-----------------------------------------------------|
D|-----------------------------------------54242-------|
A|-------3---3-------3-5------------3--3--------35-----|
E|0000003---3--333333-----5\-0000003--3---3--------8\0-|

G|-----------------------------------------------------------|
D|------------------------------------------21-----------12--|
A|-------3---3-------3-5------------3--3------32-------23----|
E|0000003---3--333333-----5\-0000003--3---3-----320-023----0-|

G|-----------------------------------------------------|
D|-----------------------------------------------------|
A|-------3---3-------3-5------------3--3----222222222--|
E|0000003---3--333333-----5\-0000003--3---3------------|

G|-----------------------------------------------------------|
D|------------------------------------------21-----------1---|
A|-------3---3-------3-5------------3--3------32-------23----|
E|0000003---3--333333-----5\-0000003--3---3-----320-032---0--|

  Visit MetalTabs.com for more metal tablature

bottom separator

Contact Us | Privacy Policy | Disclaimer | Legal Notice
Copyright © 2001-2014 MetalTabs.com. All Rights Reserved.