top separator

Home

Forum

What's New

Submit a Tab

FAQ

Links

Contact Us

Link to Us

MetalTabs.com logo

Bands

0-9

A

B

C

D

E

F

G

H

I

J

K

L

M

N

O

P

Q

R

S

T

U

V

W

X

Y

Z

Search

What

Where
 

My Dying Bride - "The Stance of Evander Sinque" Guitar Tab

Plain Text Version
More My Dying Bride Tabs

Hits: 4942
Updated: 2001-06-04 07:55:42

 

Important note
This tab is available online because we obtained explicit permission from My Dying Bride or their label.


#----------------------------------PLEASE NOTE---------------------------------#
#This file is the author's own work and represents their interpretation of the #
#song. You may only use this file for private study, scholarship, or research. #
#Unless specified otherwise, this is NOT an official tab from the band members.#
#------------------------------------------------------------------------------#

  Visit MetalTabs.com for more metal tablature
  
Taken with permission from www.MyDyingBride.org

Tune down to C# F# B E. Distortion is used throughout the song.

INTRO/OUTRO (w. delay)
|-------------------------
|-------------------------
|-------------------------
|-0---0-------------------

FILL
|---------
|---------
|-0-1-0---
|---------

RIFF A
|---------------------------------
|---------------------------------
|---------0-1-0-----------0-1-0---
|-0---0-----------3---------------

RIFF B
|-----------------------------------------------------------------
|-----------------------------------------------------------------
|-3-------2-------1-------0-1-0---5-------4-------3-------0-1-0---
|-----------------------------------------------------------------

|-----------------------------------------------------------------
|-----------------------------------------------------------------
|-3-------2-------1-------0-1-0---5-------4-------7\------0-1-0---
|-----------------------------------------------------------------

RIFF C
|-----------------------------------------------------------------
|-----------------------------------------------------------------
|-3-------2-------1-------0-1-0---5-------4-------3-------0-1-0---
|-----------------------------------------------------------------

|---------------------------------
|---------------------------------
|-3-------2-------1-------0-1-0---
|---------------------------------

RIFF D
|-------------------------------------------------------------
|-------------------------------------------------------------
|-------------------------------------------------3-----2-----
|-0-0-0-0-----0-0-0-0-----0-0-0-0-----0-0-0-0-0-0-------------

RIFF E
|---------------------------------------------------------
|---------5-------2---------------5-------4---2---4-------
|-----2-----------------------2---------------------------
|-0-----------------------0-------------------------------

|---------------------------------------------------------
|---------5-------2---------------5-------4---2---1-------
|-----2-----------------------2---------------------------
|-0-----------------------0-------------------------------

HOW TO PLAY
INTRO  x4
FILL   x1
RIFF A x4
RIFF B x2
RIFF A x2
RIFF C x1
RIFF D x4
RIFF E x1
RIFF D x2
RIFF E x1
Then it just repeats itself (except the intro)
OUTRO  x2

Supplied by Georg Klint (carfax55@hotmail.com)

  Visit MetalTabs.com for more metal tablature

bottom separator

Contact Us | Privacy Policy | Disclaimer | Legal Notice
Copyright © 2001-2014 MetalTabs.com. All Rights Reserved.