top separator

Home

Forum

What's New

Submit a Tab

FAQ

Links

Contact Us

Link to Us

MetalTabs.com logo

Bands

0-9

A

B

C

D

E

F

G

H

I

J

K

L

M

N

O

P

Q

R

S

T

U

V

W

X

Y

Z

Search

What

Where
 

Eternal Suffering - "Rise" Guitar Tab

Plain Text Version
More Eternal Suffering Tabs

Hits: 3752
Updated: 2003-12-07 08:19:42

 

By:

BrutalGtrPlayer

sendpm.gif

email.gif

Important note
This tab is available online because we obtained explicit permission from Eternal Suffering or their label.


#----------------------------------PLEASE NOTE---------------------------------#
#This file is the author's own work and represents their interpretation of the #
#song. You may only use this file for private study, scholarship, or research. #
#Unless specified otherwise, this is NOT an official tab from the band members.#
#------------------------------------------------------------------------------#

  Visit MetalTabs.com for more metal tablature
  
Band:  (Eternal Suffering)
Album: (Drowning in Tragedy)
Song:  (Rise)

Copyright (c)  (Extremities Productions) (1999)
Version 1.0 - (9/28/03)

Transcribed By: (Kevin Frasard)
Email:          (TheWholeFahKingShow@hotmail.com)


.  - palm mute           /  - slide up to
\  - slide down to       ~  - vibrato
h  - hammer on           b  - Bend
p  - pull off            Suffixes for bend
t  - tap                 f  - full bend    h - half bend
ph - pinched harmonic    q  - quarter bend t - tap bend
*  - see comment         ^  - Hold bend    r release bend
x  - Stuccatto           ~  - vibrato bend
,  - slight palm mute    () - ghost note, sustained note
"  - tremolo note        <> - Trill

Tuning G or 2 steps down on a 7-string



       Fig. 1 (8x)
 p.m...............\
---------------------
---------------------
---------------------
--2----2----2----3---
--2----2----2----3---
--0----0----0----1---


    Fig. 2 (4x)
---------------------
---------------------
---------------------
--2---(2)--(2)---3---
--2---(2)--(2)---3---
--0---(0)--(0)---1---


  Gtr. 1
----------------------------------------------------
----------------------------------------------------
----------------------------------------------------
----------------------------------------------------
--111---------------------111-----------------------
-----222111222444333666555---222111222444333666555--


  Gtr. 2
----------------------------------------------------
----------------------------------------------------
----------------------------------------------------
--3-----------------------3-------------------------
--1-----------------------1-------------------------
----------------------------------------------------

  Both Gtrs.
  Fig. 3 (4x)
----------------------------
----------------------------
----------------------------
----------------------------
--111-----------------------
-----222111222444333666555--

  Fig. 4 (4x)
     p.m...............\
--------------------------
--------------------------
--------------------------
--3-----------------------
--1--4--3--4--6--5--8--7--
-----2--1--2--4--3--6--5--


Fig. 3 (4x)


   Fig. 5 (2x)                             p.m\
------------------------------------------------
------------------------------------------------
------------------------------------------------
--3-----------------------3---------------------
--1--4--3--4--6--5--8--7--1--4--3--4--6--5--7---
-----2--1--2--4--3--6--5-----2--1--2--4--3--5---


  Gtr. 1
 p.h p.m.....................\ p.h p.m.....................\
--------------------------------------------------------------
--------------------------------------------------------------
--------------------------------------------------------------
--------------------------------------------------------------
-----4--3--4--6--5--8--7--6--5-----4--3--4--6--5--8--7--6--5--
--6--2--1--2--4--3--6--5--4--3--6--2--1--2--4--3--6--5--4--3--

  Gtr. 2
                    p.m......\                    p.m......\
--------------------------------------------------------------
--------------------------------------------------------------
--------------------------------------------------------------
--------------------------------------------------------------
--------------------8--7--6--5--------------------8--7--6--5--
--------------------6--5--4--3--------------------6--5--4--3--


                  Fig. 6 (4x) Both Gtrs.
 p.h p.m.....................\ p.h p.m.....................\
--------------------------------------------------------------
--------------------------------------------------------------
--------------------------------------------------------------
--------------------------------------------------------------
-----4--3--4--6--5--8--7--6--5-----4--3--4--6--5--8--7--6--5--
--6--2--1--2--4--3--6--5--4--3--6--2--1--2--4--3--6--5--4--3--


  Gtr. 1
------------------------------------------------------
------------------------------------------------------
------------------------------------------------------
--------------555----666----------------555---666-----
--111111---------444----555-111111---------444---555--
--------222222--------------------222222--------------



  Gtr. 2
--------------------------------------------------------
--------------------------------------------------------
--------------------------------------------------------
----------------------------------------5-------6-------
----------------------------111111--------4-4-4---5-5-5-
----------------------------------222222----------------


              Fig. 7 (4x) Both Gtrs.
------------------------------------------------------
------------------------------------------------------
------------------------------------------------------
--------------555----666----------------555---666-----
--111111---------444----555-111111---------444---555--
--------222222--------------------222222--------------


 p.m
--------
--------
--------
--2-----
--2-----
--0-----pause

  Breakdown         Riff 1 (4x)
  p.m..................................................\
---------------------------------------------------------
---------------------------------------------------------
---------------------------------------------------------
--2--22222--22222-22222-22224--44444--44443--33334--4445-
--2--22222--22222-22222-22224--44444--44443--33334--4445-
--0--00000--00000-00000-00002--22222--22221--11112--2223-

                    Fig. 8 (4x)
  p.m.......................\                    ~~
---------------------------------------------------
---------------------------------------------------
---------------------------------------------------
--------------------------------4-----3--\10h11-9--
--2-2-2-2-2-2-2-2-2-2-2-2-2-2-/-4-----3------------
--0-0-0-0-0-0-0-0-0-0-0-0-0-0-/-2-----1------------


Riff 1 (4x)

 p.m
-----
-----
--2--
--2--
--0--pause for bass

                        Fig. 9 (3x)
                                   p.m...........................\
--------------------------------------------------------------------
--------------------------------------------------------------------
--------------------------------------------------------------------
-----------------------------------4-3-----4-3-----4-3-----4-3------
--2211----2211----2211----2211-----2-1-4-3-2-1-4-3-2-1-4-3-2-1-4-3--
------2211----2211----2211----2211-----2-1-----2-1-----2-1-----2-1--




------------------------------------
------------------------------------
------------------------------------
------------------------------------
--2211----2211----2211----2211------
------2211----2211----2211----2211--


          Fig. 10 (4x)
  p.m...........................\
 ----------------------------------
 ----------------------------------
 ----------------------------------
 -4-3-----4-3-----4-3--------------
 -2-1-4-3-2-1-4-3-2-1-4-3-6-5-8-7--
 -----2-1-----2-1-----2-1-4-3-6-5--


 p.m
-----
-----
-----
-----
--8--
--6--End

  Visit MetalTabs.com for more metal tablature

bottom separator

Contact Us | Privacy Policy | Disclaimer | Legal Notice
Copyright © 2001-2014 MetalTabs.com. All Rights Reserved.