top separator

Home

Forum

What's New

Submit a Tab

FAQ

Links

Contact Us

Link to Us

MetalTabs.com logo

Bands

0-9

A

B

C

D

E

F

G

H

I

J

K

L

M

N

O

P

Q

R

S

T

U

V

W

X

Y

Z

Search

What

Where
 

Stormlord - "Where My Spirit Forever Shall Be" Guitar Tab

Plain Text Version
More Stormlord Tabs

Hits: 7157
Rated: 3.33 out of 5 (3 votes)
Updated: 2003-12-07 08:08:17

 

By:

Darkenelf

sendpm.gif

email.gif

Important note
This tab is available online because we obtained explicit permission from Stormlord or their label.


#----------------------------------PLEASE NOTE---------------------------------#
#This file is the author's own work and represents their interpretation of the #
#song. You may only use this file for private study, scholarship, or research. #
#Unless specified otherwise, this is NOT an official tab from the band members.#
#------------------------------------------------------------------------------#

  Visit MetalTabs.com for more metal tablature
  
Band: Stormlord
Album: Supreme Art of War
Song: Where My Spirit Forever Shall Be
Tabbed by: Martijn Wietsma
Tab Date: 28-09-2003
Email: Northerland@yahoo.co.uk

Standard E Tuning

/ = slide forward
\ = slide backward
X = mute
h = hammer
p = pick
~ = hold note for a second

(keyboard intro)

riff A (0:35)
|-------------------------------------------------------------------|
|-------------------------------------------------------------------|
|-------------------------------------------------------------------|
|-------------------------------------------------------------------|
|-----4------4------7------7------2------2------4------4------------|
|-222-2--222-2--555-5--555-5--000-0--000-0--222-2--222-2------------|
  xxx    xxx    xxx    xxx    xxx    xxx    xxx    xxx	(2x)

riff B (0:46)
|-------------------------------------------------------------------|
|-------------------------------------------------------------------|
|-------------------------------------------------------------------|
|-------------------------------------------------------------------|
|-----------4444-2222-4-2------2------------------------------------|
|-2222-5555---------------5555---5----------------------------------|
							(4x)
riff C (0:58)
|-------------------------------------------------------------------|
|-------------------------------------------------------------------|
|-------------------------------------------------------------------|
|----------------------------2--------------------------------------|
|-----4h5------2h4------4------5-4h5--------------------------------|
|-222------000------222---2-----------------------------------------|
  xxx      xxx      xxx

|-------------------------------------------------------------------|
|-------------------------------------------------------------------|
|-------------------------------------------------------------------|
|----------------------------2--------------------------------------|
|-----4h5------2h4------4------5--4-2-------------------------------|
|-222------000------222---2-----------5-----------------------------|
  xxx      xxx      xxx           x x x			(2x)

riff D (chords)  (lead = missing)
|-------------------------------------------------------------------|
|-------------------------------------------------------------------|
|-------------------------------------------------------------------|
|-------------------7--9-----------------------7--9-----------------|
|-------------------5--7-----------------------5--7-----------------|
|-2222222222222222-----------2222222222222222-----------------------|
 p.m..............           ................		(2x)

riff E (1:38)
|-------------------------------------------------------------------|
|-------------------------------------------------------------------|
|-------------------------------------------------------------------|
|-------------------------------------------------------------------|
|-----7------9------------------------------------------------------|
|-555-5--777-7------------------------------------------------------|
  xxx    xxx						(1x)

repeat riff A 2x
repeat riff B 4x
repeat riff C 2x

riff F (2:18)
|---|----------------------------------------------------------------|
|---|----------------------------------------------------------------|
|---|--6~--4~--3~-------------6~--4~--3~-----------------------------|
|---|--------------6~---------------------6~-------------------------|
|-4-|----------------------------------------------------------------|
|-2-|----------------------------------------------------------------|
							(2x)
riff G (2:48)
|-------------------------------------------------------------------|
|-------------------------------------------------------------------|
|-------------------------------------------------------------------|
|-------------------------------------------------------------------|
|-5---4---------222--4---------555--4---------222--7------2---------|
|-3\--2-2222222-000--2-2222222-333--2-2222222-000--5-5555-0-0000----|
        xxxxxxx xxx    xxxxxxx xxx    xxxxxxx xxx    xxxx   xxxx

|-------------------------------------------------------------------|
|-------------------------------------------------------------------|
|-------------------------------------------------------------------|
|-------------------------------------------------------------------|
|-4---------222--4---------555--4---------222--7------2-------------|
|-2-2222222-000--2-2222222-333--2-2222222-000--5-5555-0-0000--------|
    xxxxxxx xxx    xxxxxxx xxx    xxxxxxx xxx    xxxx   xxxx

riff H (3:02)
|-------------------------------------------------------------------|
|-------------------------------------------------------------------|
|-------------------------------------------------------------------|
|-----2----22-22---------2-2-----2----------------------------------|
|-4---2-4--22-22-----4---2-2--7--2----------------------------------|
|-2---0-2--00-00-----2---0-0--5--0----------------------------------|
           xx xx

|-------------------------------------------------------------------|
|-------------------------------------------------------------------|
|-------------------------------------------------------------------|
|-----2----22-22----------------------------------------------------|
|-4---2-4--22-22-----4-------------222-2----------------------------|
|-2---0-2--00-00-----2--00--55555--000-0----------------------------|
           xx xx                   xxx			(1x)

riff I (chords) (3:18)
|-------------------------------------------------------------------|
|-------------------------------------------------------------------|
|-------------------------------------------------------------------|
|-----2----22-22---------2-2-----2----------------------------------|
|-4---2-4--22-22-----4---2-2--7--2----------------------------------|
|-2---0-2--00-00-----2---0-0--5--0----------------------------------|
           xx xx					(2x)

riff I (lead)
|-------------------------------------------------------------------|
|-------------------------------------------------------------------|
|----------------------1h2--4-2-1-----------------------------------|
|-4~--2~--4~--(2~)---4------------2~--------------------------------|
|-------------------------------------------------------------------|
|-------------------------------------------------------------------|
							(2x)
riff J (3:33)
|-------------------------------------------------------------------|
|-------------------------------------------------------------------|
|-------------------------------------------------------------------|
|----2---------2----------------------------------------------------|
|-4--2--7---7--2---2-7-5-4-2-4--------------------------------------|
|-2--0--5---5--0---0-5-3-2-0-2--------------------------------------|
							(4x)
repeat riff I (chords) 2x
repeat riff I (chords) + (lead) 2x
repeat riff D 4x (4:32)
repeat riff A 2x
repeat riff B 4x
repeat riff C 2x
repeat riff I (Chords) 3x

riff K (end riff)
|-------------------------------------------------------------------|
|-------------------------------------------------------------------|
|-------------------------------------------------------------------|
|-------------------------------------------------------------------|
|-444--4~~~~~~------------------------------------------------------|
|-222--2~~~~~~------------------------------------------------------|

  Visit MetalTabs.com for more metal tablature

bottom separator

Contact Us | Privacy Policy | Disclaimer | Legal Notice
Copyright © 2001-2014 MetalTabs.com. All Rights Reserved.