top separator

Home

Forum

What's New

Submit a Tab

FAQ

Links

Contact Us

Link to Us

MuSpy.com

MetalTabs.com logo

Bands

0-9

A

B

C

D

E

F

G

H

I

J

K

L

M

N

O

P

Q

R

S

T

U

V

W

X

Y

Z

Search

What

Where
 

Sodom - "The Vice Of Killing" Guitar Tab

Plain Text Version
More Sodom Tabs

Hits: 5503
Rated: 4.00 out of 5 (4 votes)
Updated: 2003-12-07 07:39:54

 

By:

sendpm.gif

email.gif

Important note
This tab is available online because we obtained explicit permission from Sodom or their label.


#----------------------------------PLEASE NOTE---------------------------------#
#This file is the author's own work and represents their interpretation of the #
#song. You may only use this file for private study, scholarship, or research. #
#Unless specified otherwise, this is NOT an official tab from the band members.#
#------------------------------------------------------------------------------#

  Visit MetalTabs.com for more metal tablature
  
                                THE VICE OF KILLING
                              (As recorded by SODOM
                           from the 1999 album Code Red)
                         VERSION 1.0 - september 23rd 2003


Transcribed by Cristi Rachitovan
mail: decietful@hotmail.com
IRC:  undernet's #metal as "Stromblad"

... = palm mute         h = hammer-on       ah = artificial harmonic
/,\ = slide             p = pull-off        nh = natural harmonic
~   = vibrato           " = tremolo pick    tr = trill


Tune to 1 whole step down (DGCFAD).


RIFF A

D|--------------------------------------------------------------|
A|--------------------------------------------------------------|
F|--------------------------------------------------------------| 6x
C|--------------------------------------------------------------|
G|--3-2-------------3-2-------------3-2-------------3-5--5-3----|
D|--1p0-0-0-000-00001p0-0-0-000-00001p0-0-0-000-00001-3--3-1----|
        . . ... ....    . . ... ....    . . ... ....


RIFF B (0:29)

D|-----------------------------------------------------------------|
A|-----------------------------------------------------------------|
F|-----------------------------------------------------------------| 2x
C|-----------------------------------------------------------------|
G|--2-----3-----2-----3-----2-3-2-0-2-----3-----2-----3-----2---0--|
D|----0-0---0-0---0-0---0-0-----------1-1---1-1---1-1---1-1---1----|
      ...   ...   ...   ...           ...   ...   ...   ...   .


RIFF C (0:39)

D|-------0--------------------------------|
A|-------0--------------------------------|
F|-------0--------------------------------|
C|--2----9----3----9/10-9----3------------|
G|--2----7----1----7/8--7----1----3--5----|
D|--0----0--------------0---------1--3----|


RIFF D (0:50) 2x

D|-----------------------------------------------------------------|
A|-----------------------------------------------------------------|
F|-----------------------------------------------------------------|
C|-----------------------------------------------------------------|
G|--7tr8----------7tr8----------7tr8----------7tr8-5tr7-3tr5-2tr3--|
D|------0000000000----0000000000----0000000000---------------------|
        ..........    ..........    ..........

D|-----------------------------------------------------------|
A|-----------------------------------------------------------|
F|-----------------------------------------------------------|
C|-----------------------------------------------------------|
G|--7tr8----------7tr8----------7tr8-------------------------|
D|------0000000000----0000000000----0000000000-111111111111--|
        ..........    ..........    .......... ............

..RIFF A 4x
..RIFF B 2x
..RIFF C


RIFF E (1:51)

D|-------------------------------------------------------------------|
A|-------------------------------------------------------------------|
F|-------------------------------------------------------------------|
C|--9----10-----9----10-----910-910-9----10-----9----10-----910-910--|
G|--7-----8-----7-----8-----7/8-7/8-7-----8-----7-----8-----7/8-7/8--|
D|----0-0---0-0---0-0---0-0-----------0-0---0-0---0-0---0-0----------|
      ...   ...   ...   ...           ...   ...   ...   ...

D|---------------------------------------------------------------------|
A|----------------------------------------------------do-some----------|
F|-----------------------------------------------------natural---------|
C|--9----10-----9----10-----9-0-9-0-9----10-----9------harmonics-------|
G|--7-----8-----7-----8-----7/8-7/8-7-----8-----7---------here-above---|
D|----0-0---0-0---0-0---0-0-----------0-0---0-0---0-0--7th-fret-or-so--|
      ...   ...   ...   ...           ...   ...   ...

D|-------------------------------------------------------------------|
A|-------------------------------------------------------------------|
F|-------------------------------------------------------------------|
C|--9----10-----9----10-----910-910-9----10-----9----10-----910-910--|
G|--7-----8-----7-----8-----7/8-7/8-7-----8-----7-----8-----7/8-7/8--|
D|----0-0---0-0---0-0---0-0-----------0-0---0-0---0-0---0-0----------|
      ...   ...   ...   ...           ...   ...   ...   ...

(2:10)
D|-------------------------------------------------------------------|
A|-------------------------------------------------------------------|
F|-------------------------------------------------------------------| 2x
C|--7-----8-----7-----8-----7-8-7-6-7-----8-----7-----8-----7-8-7-6--|
G|--7-----8-----7-----8-----7/8-7\6-7-----8-----7-----8-----7/8-7/6--|
D|----0-0---0-0---0-0---0-0-----------0-0---0-0---0-0---0-0----------|
      ...   ...   ...   ...           ...   ...   ...   ...


RIFF F (2:20)

D|-----------------------------------------------|
A|-----------------------------------------------|
F|-----------------------------------------------| 2x
C|-----------------------------------------------|
G|-----------------------------------------------|
D|--0000000000-0000000000-0000000000-0000000000--|
    .......... .......... .......... ..........

D|-----------------------------------|
A|-----------------------------------|
F|-----------------------------------|
C|-----------------------------------|
G|-----------------------------------|
D|--0000000000-0000000000-0000-0000--|
    .......... .......... .... ....


..RIFF D 2x


RIFF G (behind solo)

D|-------------------------------------------------|
A|-------------------------------------------------|
F|-------------------------------------------------| 2x
C|-------------------------------------------------|
G|--2222222222222222222222-------------------------|
D|------------------------44444444444444444444444--|
    .............................................

..RIFF A 4x
..RIFF B 2x

RIFF H (4:03)
D|-------0---------------------------|
A|-------0---------------------------|
F|-------0---------------------------|
C|--2----9----3----9/10-9----3-------|
G|--2----7----1----7/8--7----1----3--|
D|--0----0--------------0---------1--|

D|---------------------------------------------------|
A|---------------------------------------------------|
F|---------------------------------------------------|
C|-/12-11-----5----/12-11----5-----------------------|
G|-/10--9-----3----/10--9----3--5--7--444444444------|
D|------------------------------3--5--222222222...---|

  Visit MetalTabs.com for more metal tablature

bottom separator

Contact Us | Privacy Policy | Disclaimer | Legal Notice
Copyright © 2001-2014 MetalTabs.com. All Rights Reserved.