top separator

Home

Forum

What's New

Submit a Tab

FAQ

Links

Contact Us

Link to Us

MuSpy.com

MetalTabs.com logo

Bands

0-9

A

B

C

D

E

F

G

H

I

J

K

L

M

N

O

P

Q

R

S

T

U

V

W

X

Y

Z

Search

What

Where
 

The Haunted - "In Vein" Guitar Tab

Plain Text Version
More The Haunted Tabs

Hits: 6714
Rated: 5.00 out of 5 (2 votes)
Updated: 2003-12-07 07:35:38

 

Important note
This tab is available online because we obtained explicit permission from The Haunted or their label.


#----------------------------------PLEASE NOTE---------------------------------#
#This file is the author's own work and represents their interpretation of the #
#song. You may only use this file for private study, scholarship, or research. #
#Unless specified otherwise, this is NOT an official tab from the band members.#
#------------------------------------------------------------------------------#

  Visit MetalTabs.com for more metal tablature
  
Band:  The Haunted
Album: The Haunted
Song:  In Vein

Copyright (c)  Earache Records,1998
Version 2.0 - 29/08/03

Transcribed By: Oscar Vega
Email:          ovjens@hotmail.com


.  - palm mute           /  - slide up to
\  - slide down to       ~  - vibrato
h  - hammer on           b  - Bend
p  - pull off            Suffixes for bend
t  - tap                 f  - full bend    h - half bend
ph - pinched harmonic    q  - quarter bend t - tap bend
*  - see comment         ^  - Hold bend    r release bend
x  - Stuccatto           ~  - vibrato bend
,  - slight palm mute    () - ghost note, sustained note
"  - tremolo note        <> - Trill


Gtr I (Eb Ab Db Gb Bb Eb) - 'Anders '
Gtr II (Eb Ab Db Gb Bb Eb) - 'Jensen'
Gtr III (Eb Ab Db Gb Bb Eb) - 'Gtr.3'
Gtr IV (Eb Ab Db Gb Bb Eb) - 'Gtr.4'

    Q.=145
   12/8
    Gtr I
    PM------------------------|
||--------------------------------|---------------|
||o-------------------------------|---------------|
||--------------------------------|---------------|
||--------------------------------|-7---9---10----|
||o-------------------------------|---------------|
||--0-0-0-0-0-0-0-0-0-0-0-0-0-3-2-|-5---7----8----|
|
|   Gtr II
|   PM------------------------|
||--------------------------------|---------------|
||o-------------------------------|---------------|
||--------------------------------|---------------|
||--------------------------------|-7---7----7----|
||o-------------------------------|---------------|
||--0-0-0-0-0-0-0-0-0-0-0-0-0-3-2-|-5---5----5----|


    PM|   PM|   PM|   PM|                       PM--|
|-------------------------|----------------------------||
|-------------7-----7-----|---------------------------o||
|-8-----8-----x-----x-----|----------------------------||
|-4-----4-----4-----4-----|-10----9----7---------------||
|-6-6-6-6-6-6-6-6-6-6-6-6-|---------------------------o||
|-------------------------|--8----7----5--------0-3-2--||
|
|   PM|   PM|   PM|   PM|              ~~       PM--|
|-------------------------|----------------------------||
|-------------7-----7-----|---------------------------o||
|-8-----8-----x-----x-----|----------------------------||
|-4-----4-----4-----4-----|-10---10---10-(10)\---------||
|-6-6-6-6-6-6-6-6-6-6-6-6-|---------------------------o||
|-------------------------|--8----8----8--(8)\--0-3-2--||


  $
  Gtrs I, II
  PM----|       PM----|    PM----------|            ~
|------------------------------|-------------------------
|------------------------------|----------------5--------
|------------------------------|---------5p4h5----4------
|---------9s7s9---------9------|-------------------------
|---------7s5s7-----------10-9-|-3-3-3-3-----------------
|-0-0-0-0-------0-0-0-0--------|--------------------2----


  PM----|       PM----|    PM----------|            ~
|------------------------------|-------------------------|
|------------------------------|----------------5--------|
|------------------------------|---------5p4h5----4------|
|---------9s7s9---------9------|-------------------------|
|---------7s5s7-----------10-9-|-3-3-3-3-----------------|
|-0-0-0-0-------0-0-0-0--------|--------------------3----|


  PM----|       PM----|    PM----------|            ~
|------------------------------|-------------------------|
|------------------------------|----------------5--------|
|------------------------------|---------5p4h5----4------|
|---------9s7s9---------9------|-------------------------|
|---------7s5s7-----------10-9-|-3-3-3-3-----------------|
|-0-0-0-0-------0-0-0-0--------|--------------------2----|


                                                To Coda
  PM----|       PM----|    PM----------|       PM--|
|------------------------------|--------------------------|
|------------------------------|--------------------------|
|------------------------------|---------5p4h5------------|
|---------9s7s9---------9------|-----------------5-7------|
|---------7s5s7-----------10-9-|-3-3-3-3-------5-----5----|
|-0-0-0-0-------0-0-0-0--------|--------------------------|


  Gtr I
|-------------------|---------------------|
|-------------------|---------------------|
|-------------------|---------------------|
|-------------------|-7---9---10----------|
|-2--------(2)------|---------------------|
|-0--------(0)--3-2-|-5---7----8----------|
|
| Gtr II
|-------------------|---------------------|
|-------------------|---------------------|
|-------------------|---------------------|
|-------------------|-7-----------(7)---x-|
|-2--------(2)------|---------------------|
|-0--------(0)--3-2-|-5-----------(5)---x-|


                                       PM--|
|-------------------|------------------------|
|-------------------|------------------------|
|-8---(8)s==11------|------------------------|
|-4---(4)s===7------|-10---9---7-------------|
|-6---(6)s===9------|------------------------|
|-------------------|--8---7---5-------0-3-2-|
|
|                                      PM--|
|-------------------|------------------------|
|-------------------|------------------------|
|-8-----------------|------------------------|
|-4-----------------|-10----------(10)-------|
|-6-----------------|------------------------|
|-------------------|--8-----------(8)-0-3-2-|


|-------------------|----------------------|
|-------------------|----------------------|
|-------------------|-----------------9----|
|-------------------|-7---9---10-----------|
|-2--------(2)------|-----------------7----|
|-0--------(0)--3-2-|-5---7----8-----------|
|
|-------------------|----------------------|
|-------------------|----------------------|
|-------------------|----------------------|
|-------------------|-7-----------(7)----x-|
|-2--------(2)------|----------------------|
|-0--------(0)--3-2-|-5-----------(5)----x-|


                               D.S. al Coda
                                       PM
|-------------------|------------------------|
|-------------------|------------------------|
|-8---9---11---12---|------------------------|
|-------------------|-10---9---7-------------|
|-6---7----9---10---|------------------------|
|-------------------|--8---7---5-------0-3-2-|
|
|                                      PM--|
|-------------------|------------------------|
|-------------------|------------------------|
|-8-----------------|------------------------|
|-4-----------------|-10----------(10)-------|
|-6-----------------|------------------------|
|-------------------|--8-----------(8)-0-3-2-|


    &
    Gtrs I, II
       PM        PM           PM        PM
||-----------------------|----------------------|
||o----------------------|----------------------|
||-----------------------|------4p0-------------|
||-------2p0h2-----5p0---|-2--------------------|
||o-2------------------5-|----------------------|
||--0--0---------0-------|----0-----6---0-5h6p5-|


     PM        PM           PM----|   PM--|
|----------------------|------------------------||
|----------------------|-----------------------o||
|----------------------|------------------------||
|------2p0h2-----5p0---|-2----------------------||
|-2------------------5-|------------5----------o||
|-0--0---------0-------|----0-0-3-5---0-0-5-3---||


  Gtr I
  PM------------------------|
|-------------------------------|---------------|
|-------------------------------|---------------|
|-------------------------------|---------------|
|-------------------------------|-7---9---10----|
|-------------------------------|---------------|
|-0-0-0-0-0-0-0-0-0-0-0-0-0-3-2-|-5---7----8----|
|
| Gtr II
| PM------------------------|
|-------------------------------|---------------|
|-------------------------------|---------------|
|-------------------------------|---------------|
|-------------------------------|-7---7----7----|
|-------------------------------|---------------|
|-0-0-0-0-0-0-0-0-0-0-0-0-0-3-2-|-5---5----5----|


    PM|   PM|   PM|   PM|                       PM--|
|-------------------------|---------------------------
|-------------7-----7-----|---------------------------
|-8-----8-----x-----x-----|---------------------------
|-4-----4-----4-----4-----|-10----9----7--------------
|-6-6-6-6-6-6-6-6-6-6-6-6-|---------------------------
|-------------------------|--8----7----5--------0-3-2-
|
|   PM|   PM|   PM|   PM|              ~~       PM--|
|-------------------------|---------------------------
|-------------7-----7-----|---------------------------
|-8-----8-----x-----x-----|---------------------------
|-4-----4-----4-----4-----|-10---10---10-(10)\--------
|-6-6-6-6-6-6-6-6-6-6-6-6-|---------------------------
|-------------------------|--8----8----8--(8)\--0-3-2-


  Gtrs I, II
  PM------------------------|       PM|   PM|   PM--|   PM
|-------------------------------|--------------------------|
|-------------------------------|--------------------------|
|-------------------------------|--------------------------|
|-------------------------------|--------------------------|
|-------------------------------|--------------------------|
|-0-0-0-0-0-0-0-0-0-0-0-0-0-3-2-|-8-0-0-7-0-0-5-0-0-0-5-0--|


  Gtr I
    PM|   PM|   PM|   PM|                               ~~
|-------------------------|-------------------------------|
|-------------------------|-------------------------------|
|-------------------------|-5---5s8---8s11----11s14----14-|
|-3-----3-----3-----3-----|---4-----7------10-------13----|
|-3-----3-----3-----3-----|-------------------------------|
|-1-1-1-1-1-1-1-1-1-1-1-1-|-------------------------------|
|
| Gtr II
|   PM|   PM|   PM|   PM|                               ~~
|-------------------------|-------------------------------|
|-------------------------|-------------------------------|
|-------------------------|-------------------------------|
|-3-----3-----3-----3-----|-------------------------------|
|-3-----3-----3-----3-----|-3---3s6---6s=9-----9s12----12-|
|-1-1-1-1-1-1-1-1-1-1-1-1-|---2-----5-------8-------11----|


  $$
  Gtrs I, II
  PM----|       PM----|    PM----------|            ~
|------------------------------|-------------------------
|------------------------------|----------------5--------
|------------------------------|---------5p4h5----4------
|---------9s7s9---------9------|-------------------------
|---------7s5s7-----------10-9-|-3-3-3-3-----------------
|-0-0-0-0-------0-0-0-0--------|--------------------2----


  PM----|       PM----|    PM----------|            ~
|------------------------------|-------------------------|
|------------------------------|----------------5--------|
|------------------------------|---------5p4h5----4------|
|---------9s7s9---------9------|-------------------------|
|---------7s5s7-----------10-9-|-3-3-3-3-----------------|
|-0-0-0-0-------0-0-0-0--------|--------------------3----|


  PM----|       PM----|    PM----------|            ~
|------------------------------|-------------------------|
|------------------------------|----------------5--------|
|------------------------------|---------5p4h5----4------|
|---------9s7s9---------9------|-------------------------|
|---------7s5s7-----------10-9-|-3-3-3-3-----------------|
|-0-0-0-0-------0-0-0-0--------|--------------------2----|


  PM----|       PM----|    PM----------|       PM--|
|------------------------------|--------------------------|
|------------------------------|--------------------------|
|------------------------------|---------5p4h5------------|
|---------9s7s9---------9------|-----------------5-7------|
|---------7s5s7-----------10-9-|-3-3-3-3-------5-----5----|
|-0-0-0-0-------0-0-0-0--------|--------------------------|


       PM        PM           PM        PM
||-----------------------|----------------------|
||o----------------------|----------------------|
||-----------------------|------4p0-------------|
||-------2p0h2-----5p0---|-2--------------------|
||o-2------------------5-|----------------------|
||--0--0---------0-------|----0-----6---0-5h6p5-|


                                       To Dbl. Coda
     PM        PM           PM----|   PM--|
|----------------------|------------------------||--
|----------------------|-----------------------o||--
|----------------------|------------------------||--
|------2p0h2-----5p0---|-2----------------------||--
|-2------------------5-|------------5----------o||--
|-0--0---------0-------|----0-0-3-5---0-0-5-3---||--


|---------------------|---------------------|
|---------------------|---------------------|
|-7s9--9----7s9--9----|-7s9--9----7s9--9----|
|-3s5--5--x-3s5--5--x-|-3s5--5--x-3s5--5--x-|
|-5s7--7--x-5s7--7--x-|-5s7--7--x-5s7--7--x-|
|---------------------|---------------------|


                                    PM~
|---------------------|-------------------|
|---------------------|-------------------|
|-7s9--9----7s9--9----|-7s9--9------------|
|-3s5--5--x-3s5--5--x-|-3s5--5------------|
|-5s7--7--x-5s7--7--x-|-5s7--7------------|
|---------------------|---------6---0-5---|


|---------------------|---------------------|
|---------------------|---------------------|
|-7s9--9----7s9--9----|-7s9--9----7s9--9----|
|-3s5--5--x-3s5--5--x-|-3s5--5--x-3s5--5--x-|
|-5s7--7--x-5s7--7--x-|-5s7--7--x-5s7--7--x-|
|---------------------|---------------------|


                PM--|     PM|
|---------------------|----------------------|
|---------------------|----------------------|
|-7s9--9----9---------|----------------------|
|-3s5--5--x-5---------|----------------------|
|-5s7--7--x-7---------|-5--------------------|
|---------------0-3-5-|---5-5-5s3--3s2--2s1--|


  Gtr I
           ~                                 PM~
|-------------------------|------------------------|
|-------------------------|--------------------5---|
|-------------------------|--------------4---------|
|------4s5-5-----/5p4p2---|-/5p====4p=2------------|
|-------------------------|------------------------|
|-0--0---------0--------0-|------------------0-----|
|
| Gtr II
|          ~                                 PM
|-------------------------|------------------------|
|-------------------------|--------------3---------|
|-------------------------|--3b4r=(3)--------------|
|---------------------2-4-|-----------5--------5---|
|------5s7-7------5-------|------------------------|
|-0--0--------------------|------------------0-----|


           ~                                   ~
|-------------------------|------------------------|
|-------------------------|------------------------|
|-------------------------|------------------------|
|------4s5-5-----/5p4p2---|-/5p====4p=2------------|
|-------------------------|------------------------|
|-0--0---------0--------0-|--------------6---0-5---|
|
|          ~                                   ~
|-------------------------|------------------------|
|-------------------------|------------------------|
|-------------------------|--3b4r=(3)--------------|
|---------------------2-4-|-----------5------------|
|------5s7-7------5-------|------------------------|
|-0--0--------------------|--------------6---0-5---|


           ~                                 PM~
|-------------------------|------------------------|
|-------------------------|--------------------5---|
|-------------------------|--------------4---------|
|------4s5-5-----/5p4p2---|-/5p====4p=2------------|
|-------------------------|------------------------|
|-0--0---------0--------0-|------------------0-----|
|
|          ~                                 PM
|-------------------------|------------------------|
|-------------------------|--------------3---------|
|-------------------------|--3b4r=(3)--------------|
|---------------------2-4-|-----------5--------5---|
|------5s7-7------5-------|------------------------|
|-0--0--------------------|------------------0-----|


           ~    PM--|     PM|
|---------------------|----------------------|
|---------------------|----------------------|
|---------------------|----------------------|
|------4s5-5----------|----------------------|
|---------------------|-5--------------------|
|-0--0----------0-3-5-|---5-5-5s3--3s2--2s1--|
|
|          ~    PM--|     PM|
|---------------------|----------------------|
|---------------------|----------------------|
|---------------------|----------------------|
|---------------------|----------------------|
|------5s7-7----------|-5--------------------|
|-0--0----------0-3-5-|---5-5-5s3--3s2--2s1--|


  Gtr I
|--------------------------------------|--------------------------------------|
|--------------------------------------|--------------------------------------|
|--------------------------------------|--------------------------------------|
|--------------------------------------|--7--------9-------10-----------------|
|--2----------------------(2)----------|--------------------------------------|
|--0----------------------(0)-----3--2-|--5--------7--------8-----------------|
|
| Gtr II
|--------------------------------------|--------------------------------------|
|--------------------------------------|--------------------------------------|
|--------------------------------------|--------------------------------------|
|--------------------------------------|--7----------------------(7)--------x-|
|--2----------------------(2)----------|--------------------------------------|
|--0----------------------(0)-----3--2-|--5----------------------(5)--------x-|
|
| Gtr III
|----------12-----------------12-------|----------14-----------------14-------|
|-------12--5-12----------12---5-12----|-------12--7-12----------12---7-12----|
|----12--4-----4-12----12--4------4-12-|----12--4-----4-12----12--4------4-12-|
|-14--5-----------5-14--5------------5-|-14--5-----------5-14--5------------5-|
|--7-----------------7-----------------|--7-----------------7-----------------|
|--------------------------------------|--------------------------------------|


                                                                PM--|
|--------------------------------------|------------------------------|
|--------------------------------------|------------------------------|
|--8-------(8)s======11----------------|------------------------------|
|--4-------(4)s=======7----------------|-10------9------7-------------|
|--6-------(6)s=======9----------------|------------------------------|
|--------------------------------------|--8------7------5-------0-3-2-|
|
|                                                               PM--|
|--------------------------------------|------------------------------|
|--------------------------------------|------------------------------|
|--8-----------------------------------|------------------------------|
|--4-----------------------------------|-10----------------(10)-------|
|--6-----------------------------------|------------------------------|
|--------------------------------------|--8-----------------(8)-0-3-2-|
|
|----------11-----------------11-------|------------------------------|
|-------12--4--12----------12--4-12----|------------------------------|
|----12--4------4-12----12--4-----4-12-|------------------------------|
|-14--5------------5-14--5-----------4-|--9h10-9----------------------|
|--7------------------7----------------|--2h=3-2---10-9-7---(7)-------|
|--------------------------------------|------------3-2-0---(0)-------|


|-----------------------|----------------------|
|-----------------------|----------------------|
|-----------------------|----------------------|
|-----------------------|-7---9---10-----------|
|--2----------(2)-------|----------------------|
|--0----------(0)---3-2-|-5---7----8-----------|
|
|-----------------------|----------------------|
|-----------------------|----------------------|
|-----------------------|----------------------|
|-----------------------|-7-----------(7)----x-|
|--2----------(2)-------|----------------------|
|--0----------(0)---3-2-|-5-----------(5)----x-|
|
|-----------------------|----------------------|
|-----------------------|----------------------|
|-----------------------|----------------------|
|--5---4---5------4-----|-7---9---10------9----|
|-10---9---7------6-----|-9---7----6------7----|
|-----------------------|----------------------|


                                       D.S.S. al Coda
                                                PM---|
|---------------------|---------------------------------|
|---------------------|---------------------------------|
|-8---(8)s==11--------|---------------------------------|
|-4---(4)s===7--------|-10-----9------7-----------------|
|-6---(6)s===9--------|---------------------------------|
|---------------------|--8-----7------5---------0--3--2-|
|
|                                               PM---|
|---------------------|---------------------------------|
|---------------------|---------------------------------|
|-8-------------------|---------------------------------|
|-4-------------------|-10-----------------(10)---------|
|-6-------------------|---------------------------------|
|---------------------|--8------------------(8)-0--3--2-|
|
|                                                     ~~
|---------------------|---------------------------------|
|---------------------|--4---4s7---7s10-----10s13----13-|
|-8----9----11---12---|--5-2-5s8-5-8s11--8--11s14-11-14-|
|-9----7-----9---10---|----4-----7------10--------13----|
|---------------------|---------------------------------|
|---------------------|---------------------------------|


    &&
    Gtr I
             ~                                 PM~
||--------------------------|------------------------|
||o-------------------------|--------------------5---|
||--------------------------|--------------4---------|
||-------4s5-5-----/5p4p2---|-/5p====4p=2------------|
||o-------------------------|------------------------|
||--0--0---------0--------0-|------------------0-----|
|
|   Gtr II
|            ~                                 PM
||--------------------------|------------------------|
||o-------------------------|--------------3---------|
||--------------------------|--3b4r=(3)--------------|
||----------------------2-4-|-----------5--------5---|
||o------5s7-7------5-------|------------------------|
||--0--0--------------------|------------------0-----|


           ~                                   ~
|-------------------------|------------------------|
|-------------------------|------------------------|
|-------------------------|------------------------|
|------4s5-5-----/5p4p2---|-/5p====4p=2------------|
|-------------------------|------------------------|
|-0--0---------0--------0-|--------------6---0-5---|
|
|          ~                                   ~
|-------------------------|------------------------|
|-------------------------|------------------------|
|-------------------------|--3b4r=(3)--------------|
|---------------------2-4-|-----------5------------|
|------5s7-7------5-------|------------------------|
|-0--0--------------------|--------------6---0-5---|


           ~                                 PM~
|-------------------------|------------------------|
|-------------------------|--------------------5---|
|-------------------------|--------------4---------|
|------4s5-5-----/5p4p2---|-/5p====4p=2------------|
|-------------------------|------------------------|
|-0--0---------0--------0-|------------------0-----|
|
|          ~                                 PM
|-------------------------|------------------------|
|-------------------------|--------------3---------|
|-------------------------|--3b4r=(3)--------------|
|---------------------2-4-|-----------5--------5---|
|------5s7-7------5-------|------------------------|
|-0--0--------------------|------------------0-----|


           ~    PM--|     PM|
|---------------------|-----------------------||
|---------------------|----------------------o||
|---------------------|-----------------------||
|------4s5-5----------|-----------------------||
|---------------------|-5--------------------o||
|-0--0----------0-3-5-|---5-5-5s3--3s2--2s1---||
|
|          ~    PM--|     PM|
|---------------------|-----------------------||
|---------------------|----------------------o||
|---------------------|-----------------------||
|---------------------|-----------------------||
|------5s7-7----------|-5--------------------o||
|-0--0----------0-3-5-|---5-5-5s3--3s2--2s1---||

  Visit MetalTabs.com for more metal tablature

bottom separator

Contact Us | Privacy Policy | Disclaimer | Legal Notice
Copyright © 2001-2014 MetalTabs.com. All Rights Reserved.