top separator

Home

Forum

FAQ

Contact Us

Link to Us

MetalTabs.com logo

Bands

0-9

A

B

C

D

E

F

G

H

I

J

K

L

M

N

O

P

Q

R

S

T

U

V

W

X

Y

Z

Opeth - "Ending credits" Bass Tab

Plain Text Version
More Opeth Tabs

Hits: 5573
Rated: 2.25 out of 5 (4 votes)
Updated: 2003-12-07 07:34:26


#----------------------------------PLEASE NOTE---------------------------------#
#This file is the author's own work and represents their interpretation of the #
#song. You may only use this file for private study, scholarship, or research. #
#Unless specified otherwise, this is NOT an official tab from the band members.#
#------------------------------------------------------------------------------#

  Visit MetalTabs.com for more metal tablature
  
Band:  Opeth
Album: Damnation
Song:  Ending Credits

Copyright (c) Koch Records 2003
Version 1.0  9-23-03

Transcribed By: Bart Zottola
Email:          ralph_thegreat@hotmail.com

 h  Hammer on
 p  pull off
 / - Slide up

(Start when lead guitar comes in)
Verse 1
 |-------------------------------|-------------------------------|
 |-------------------------------|------------7-----------7------|
 |-------------------------------|--------5h7---------7-----7----|
 |0-----0-12--0-----0-12--10--7--|5-----5---------------------5--|
  1   +   2   +   3   +   4   +   1   +   2   +   3   +   4   +

 |-------------------------------|-------------------------------|
 |-------------------------------|-------------------------------|
 |6-----------6-------6----------|----9---5h7-------9h10p97--10p7|
 |------7------------------------|0-----7-----0------------------|
  1   +   2   +   3   +   4   +   1   +   2   +   3   +   4   +
Verse 2
 |-------------------------------|-------------------------------|
 |-------------------------------|------------7------/9---7------|
 |-------------------------------|--------5h7-------7-------7----|
 |0-----0-12--0-----0-12--10--7--|5-----5---------------------5--|
  1   +   2   +   3   +   4   +   1   +   2   +   3   +   4   +

 |-------------------------------|-------------------------------|
 |-------------------------------|-------------------------------|
 |6-----------6-------6----------|----9---5h7-------9h10p97--10p7|
 |------7------------------------|0-----7-----0------------------|
  1   +   2   +   3   +   4   +   1   +   2   +   3   +   4   +
Verse 3
 |-------------------------------|-------------------------------|
 |-------------------------------|------------7-------7---7------|
 |-------------------------------|--------5h7-------7-------7----|
 |0-----0-12--0-----0-12--10--7--|5-----5---------------------5--|
  1   +   2   +   3   +   4   +   1   +   2   +   3   +   4   +

 |-------------------------------|-------------------------------|
 |-------------------------------|-------------------------------|
 |6-----------6-------6----------|----9---5h7-------9h10p97-10p7|
 |------7------------------------|0-----7-----0------------------|
  1   +   2   +   3   +   4   +   1   +   2   +   3   +   4   +
Verse 4
 |-------------------------------|-------------------------------|
 |-------------------------------|-------------------------------|
 |-------------------------------|-------------------------------|
 |8---------------8---8-------7--|--------------7-7---7----------|
  1   +   2   +   3   +   4   +   1   +   2   +   3   +   4   +
 |-------------------------------|-------------------------------|
 |-------------------------------|----------------------------9--|
 |-------------------------------|------------------------7h9---7|
 |0-------0---9-------9-------8--|----------------8---8----------|
  1   +   2   +   3   +   4   +   1   +   2   +   3   +   4   +

 |-------------------------------|-------------------------------|
 |-------------------------------|-------------------------------|
 |----------------------------6--|-------------------------------|
 |5---------------5---5----------|-------------------------------|
  1   +   2   +   3   +   4   +   1   +   2   +   3   +   4   +
Verse 5
 |-------------------------------|-------------------------------|
 |-------------------------------|-------------------------------|
 |-------------------------------|-------------------------------|
 |0-------0---8-----5----/10-----|0-------0---8---5------/10-----|
  1   +   2   +   3   +   4   +   1   +   2   +   3   +   4   +

 |-------------------------------|-------------------------------|
 |-------------------------------|-------------------------------|
 |-------------------------------|-------------------------------|
 |0-------0---8-----5-----8------|0-------0---8---5------/10-----|
  1   +   2   +   3   +   4   +   1   +   2   +   3   +   4   +
Verse 6
 |-------------------------------|-------------------------------|
 |-------------------------------|----------------9---9----------|
 |-------------------------------|--------------9---------9------|
 |8---------------8---8-------7--|----------------------------7--|
  1   +   2   +   3   +   4   +   1   +   2   +   3   +   4   +

 |-------------------------------|-------------------------------|
 |-------------------------------|-------------------------------|
 |-------------------------------|-------------------------------|
 |0-------0---9-------9-------8--|----------------8---8----------|
  1   +   2   +   3   +   4   +   1   +   2   +   3   +   4   +

 |-------------------------------|-------------------------------|
 |-------------------------------|-------------------------------|
 |----------------------------6--|-------------------------------|
 |5---------------5---5----------|-------------------------------|
  1   +   2   +   3   +   4   +   1   +   2   +   3   +   4   +

Verse 1 x2
Verse 2
Verse 3
Verse 4
Verse 5
Verse 3
Verse 1
Verse 2
Verse 3
Verse 6
Verse 5 until the END!

  Visit MetalTabs.com for more metal tablature

bottom separator

Contact Us | Privacy Policy | Disclaimer
Copyright © 2001-2014 MetalTabs.com. All Rights Reserved.