top separator

Home

Forum

What's New

Submit a Tab

FAQ

Links

Contact Us

Link to Us

MuSpy.com

MetalTabs.com logo

Bands

0-9

A

B

C

D

E

F

G

H

I

J

K

L

M

N

O

P

Q

R

S

T

U

V

W

X

Y

Z

Search

What

Where
 

Sodom - "Napalm In The Morning" Guitar Tab

Plain Text Version
More Sodom Tabs

Hits: 19114
Rated: 4.06 out of 5 (16 votes)
Updated: 2003-12-07 06:58:04

 

By:

sendpm.gif

email.gif

Important note
This tab is available online because we obtained explicit permission from Sodom or their label.


#----------------------------------PLEASE NOTE---------------------------------#
#This file is the author's own work and represents their interpretation of the #
#song. You may only use this file for private study, scholarship, or research. #
#Unless specified otherwise, this is NOT an official tab from the band members.#
#------------------------------------------------------------------------------#

  Visit MetalTabs.com for more metal tablature
  
                               NAPALM IN THE MORNING
                               (As recorded by SODOM
                             from the 2001 album M-16)
                            VERSION 1.0 - september 2003


Transcribed by Cristi Rachitovan
mail: decietful@hotmail.com
IRC:  undernet's #metal as "Stromblad"

... = palm mute         h = hammer-on       ah = artificial harmonic
/,\ = slide             p = pull-off        nh = natural harmonic
~   = vibrato           " = tremolo pick    <  = fade in


Here's the tab for this kickass Sodom song.
Tune to 1 whole step down (DGCFAD).


RIFF A (0:09) - Clean channel.

D|----------------------------------------------------------------|
A|----------------------------------------------------------------|
F|------0-------0-------0--------------0-------0------------------|
C|----7---7---7---7---7---7----------4---4---4--4------4----------|
G|----------5-------4-----4----0-2-3-------5-----5---5---5--------|
D|--0----------------------------------------------7-------3/5-5--|


D|----------------------------------------------------------------|
A|----------------------------------------------------------------|
F|------0-------0-------0--------------0-------0------------------|
C|----7---7---7---7---7---7----------4---4---4--4------4----------|
G|----------5-------4-----4----0-2-3-------5-----5---5---5--------|
D|--0----------------------------------------------7-------3/5-5--|

D|------------------------|
A|------------------------|
F|--------0---------------|
C|------0---0-------5--4--|
G|----2-------2---2-3--3--|
D|--0-----------0---------|


RIFF B - (0:46) - Distorted.

D|-----------------------------------------------------|
A|-----------------------------------------------------|
F|--------12-----11-----9-----------4-----5-----7------| 2x
C|------9----9------9-----9-------5---5-----5-----5----|
G|----7--------7------7-----7---7-------7-----7-----7--|
D|--0-------------------------0------------------------|


RIFF C (1:04)

D|----------------------------------------------------|
A|----------------------------------------------------|
F|----------------------------------------------------| 4x
C|--9-----9----10\9---7/9-10-9-----9------------------|
G|--7-----7-----8\7---5/7--8-7-----7-----8-7-5-7-5-7--|
D|--0-0-0-0-0-0-----0--------0-0-0-0-0-0-6-5-3-5-3-5--|
      ...   ...     .          ...   ...


RIFF D1 (1:22)

D|------------------|
A|------------------|
F|-----------3------| 2x
C|--2--------3------|
G|--2------0-1------|
D|--0----3----------|
         ...

RIFF D2

D|---------------------------------------------------|
A|---------------------------------------------------|
F|---------------------------------------------------| 2x
C|---------------------------------------------------|
G|--2-----2-----2-----2-3-5-8-----8-----8-----8-7-5--|
D|--0-0-0-0-0-0-0-0-0-0-1-3-6-6-6-6-6-6-6-6-6-6-5-3--|
      ...   ...   ...         ...   ...   ...

RIFF E (1:41)

D|--------------------------|
A|--------------------------|
F|--------------------------| 2x
C|--/9~-------*---------3~--|
G|--/7~-7b8r7-5~-2--3-2-1~--|
D|------5b6r5-3~-0--1-0-----|
                      .
                          * - you can slightly bend this one

RIFF F (1:51) - 2nd time dont play the last 2 chords and jump to RIFF C

D|------------------------------------------------------------|
A|------------------------------------------------------------|
F|------------------------------------------------------------| 2x
C|-----------4--5--5--4--4---------------4--5--5\4--7--7------|
G|--2--2--5--2--3--3-02--2-7-5-2--2---5--2--3--3\2-05--5-5-4--|
D|--0--0-03----------------5-3-0--0--03------------------3-2--|
         .           .               .             .     ...


RIFF C - 2x
RIFF D1 - 2x
RIFF D2 - 2x
RIFF E - 2x
RIFF F - 2x
RIFF C - 2x


RIFF G (3:26)

D|---------------------------------------------------|
A|---------------------------------------------------|
F|---------------------------------------------------| 4x
C|--2-----3-----5-----------2-----3-----5------------|
G|--2-2-2-3-2-2-5-2-2-------2-2-2-3-2-2-5-2-2--------|
D|--0-0-0-1-0-0-3-0-0-0-0-0-0-0-0-1-0-0-3-0-0-3-5-6--|
                      .....

RIFF H (3:45)

    d u d u d u d etc.
D|---------------------------------------------------|
A|---------------------------------------------------|
F|---------------------------------------------------| 4x
C|---------------------------------------------------|
G|--2-8-7-5-7-2-2-8-7-5-7-2-2-8-7-5-7-2-5-2-2-7-2-8--|
D|--0-6-5-3-5-0-0-6-5-3-5-0-0-6-5-3-5-0-3-0-0-5-0-6--|

RIFF F - 2x

During solo:
RIFF C - 3 1/2x
then
RIFF I (4:40)

D|------------------------------------------------|
A|------------------------------------------------|
F|------------------------------------------------| 2x
C|---------10\9---------9\8--------8\7--7\6--6\5--|
G|----------8\7---------7\6--------6\5--5\4--4\3--|
D|--00000000----00000000---00000000---00---00-----|
    ........    ........   ........   ..   ..

RIFF F - 2x
RIFF C - 3 1/2x
RIFF H - 4x end with E5

  Visit MetalTabs.com for more metal tablature

bottom separator

Contact Us | Privacy Policy | Disclaimer | Legal Notice
Copyright © 2001-2014 MetalTabs.com. All Rights Reserved.