top separator

Home

Forum

What's New

Submit a Tab

FAQ

Links

Contact Us

Link to Us

MuSpy.com

MetalTabs.com logo

Bands

0-9

A

B

C

D

E

F

G

H

I

J

K

L

M

N

O

P

Q

R

S

T

U

V

W

X

Y

Z

Search

What

Where
 

Hunter - "MIRROR OF WAR" Guitar Tab

Plain Text Version
More Hunter Tabs

Hits: 5064
Rated: 4.75 out of 5 (4 votes)
Updated: 2003-12-07 06:54:20

 

Important note
We did our best to reach Hunter and ask for their permission to publish this tab. Unfortunately they did not respond to our requests or we could not find a way to contact them. This tab is available online until Hunter tells us to take it down.


#----------------------------------PLEASE NOTE---------------------------------#
#This file is the author's own work and represents their interpretation of the #
#song. You may only use this file for private study, scholarship, or research. #
#Unless specified otherwise, this is NOT an official tab from the band members.#
#------------------------------------------------------------------------------#

  Visit MetalTabs.com for more metal tablature
  
Band:  Hunter
Album: Medeis
Song:  Mirror Of War

Copyright (c)  Pomaton EMI
Version 1.0 - 2003

Transcribed By: Blinq
Email:          blinq@wp.pl

www.hunter.art.pl

.  - palm mute           /  - slide up to
\  - slide down to       ~  - vibrato
h  - hammer on           b  - Bend
p  - pull off            Suffixes for bend
t  - tap                 f  - full bend    h - half bend
ph - pinched harmonic    q  - quarter bend t - tap bend
*  - see comment         ^  - Hold bend    r release bend
x  - Stuccatto           ~  - vibrato bend
,  - slight palm mute    () - ghost note, sustained note
"  - tremolo note        <> - Trill


Tuning D G C F A d

Main riff:
d:-----------------------------|
A:-----------------------------|
F:-----------------------------|
C:--4-------------5------------|
G:--2-2--4-5-4-2--3-2--4-5-4-2-|
D:----0--2-3-2-0----0--2-3-2-0-|



d:-----------------------------|
A:-----------------------------|
F:-----------------------------|
C:--4-------------5------------|
G:--2-2--4-5-4-2--3-2--4-5-4-5-|
D:----0--2-3-2-0----0--2-3-2-3-|


Verse:
d:--------------------------------------|
A:--------------------------------------|
F:--------------------------------------|
C:--------------------------------------|
G:--2-------2-------2-------2--------2--|
D:--0-00000-0-00000-0-00000-0-00000--0--|
PM    .....   .....   .....   .....

d:--------------------------|
A:--------------------------|
F:--------------------------|
C:-------------5------------|
G:--2-4-5-4-2--3-2--4-5-4-5-|
D:--0-2-3-2-0----0--2-3-2-3-|


Chours:
d:---------------------------------|
A:---------------------------------|
F:---------------------------------|
C:--7-5--5-4-----------------------|
G:--5-3--3-2--5-4-2-------2--------|
D:------------3-2-0-00000-0-00000--|
PM                  .....   .....


Interlude:
d:--0--0--0--0--|
A:--4--4--4--4--|
F:--5--5--5--5--|
C:--7--7--7--7--|
G:--6--6--6--6--|
D:--------------|


solo backing:
d:-------------------------------|
A:-------------------------------|
F:-------------------------------|
C:-------------------------------|
G:--2-------------3--------------|
D:----0--2-3-2-0----0--2-3-2-0---|

d:-------------------------------|
A:-------------------------------|
F:-------------------------------|
C:-------------------------------|
G:--2-------------3--------------|
D:----0--2-3-2-0----0--2-3-5~~---|

  Visit MetalTabs.com for more metal tablature

bottom separator

Contact Us | Privacy Policy | Disclaimer | Legal Notice
Copyright © 2001-2014 MetalTabs.com. All Rights Reserved.