top separator

Home

Forum

FAQ

Contact Us

Link to Us

MetalTabs.com logo

Bands

0-9

A

B

C

D

E

F

G

H

I

J

K

L

M

N

O

P

Q

R

S

T

U

V

W

X

Y

Z

Opeth - "To rid the disease" Bass Tab

Plain Text Version
More Opeth Tabs

Hits: 8038
Rated: 4.00 out of 5 (4 votes)
Updated: 2003-12-07 06:01:52


#----------------------------------PLEASE NOTE---------------------------------#
#This file is the author's own work and represents their interpretation of the #
#song. You may only use this file for private study, scholarship, or research. #
#Unless specified otherwise, this is NOT an official tab from the band members.#
#------------------------------------------------------------------------------#

  Visit MetalTabs.com for more metal tablature
  
Band:  Opeth
Album: Damnation
Song:  To Rid the Disease

Copyright (c) Koch Records 2003
Version 1.0  9-18-03

Transcribed By: Bart Zottola
Email:          ralph_thegreat@hotmail.com


*
* - repeat
/ - Slide Up
\ - Slide Down
h - hammer on
p  pull off

Tuning E A D G
 Verse 1 (4/4)
 |-------------------------------|---------------------------------|
*|-------------------------------|---------------------------------|
*|-------------------------------|---------------------------------|
 |3------------------------------|---------------------------------|
  1   +   2   +   3   +   4   +    1   +   2   +   3   +   4   +

 |-------------------------------|---------------------------------|
 |-------------------------------|---------------------------------|*
 |-------------------------------|---------------------------------|*
 |-------------------------------|---------------------------------|
  1   +   2   +   3   +   4   +    1   +   2   +   3   +   4   +
 Verse 2
 |-------------------------------|---------------------------------|
*|-------------------------------|-----------------------------3h5-|*
*|-------------------------------|-------------------------3h5-----|*
 |3---------------3--------------|-3---------------3---3-----------|
  1   +   2   +   3   +   4   +    1   +   2   +   3   +   4   +
 Verse 3
 |-------------------------------|---------------------------------|
*|-------------------------------|---------------------------------|*
*|----------------5-------------5|-4-------------4-3---3-----3---3-|*
 |0-------------0----------------|---------------------------------|
  1   +   2   +   3   +   4   +    1   +   2   +   3   +   4   +
 Verse 4
 |-------------------------------|---------------------------------|
 |-------------------------------|---------------------------------|
 |-------------------------------|---------------------------------|
 |0-------------0-0---0-----0--0-|-4---------------4---------------|
  1   +   2   +   3   +   4   +    1   +   2   +   3   +   4   +

 |-------------------------------|---------------------------------|
 |-------------------------------|---------------------------------|
 |-------------------------------|---------------------------------|
 |3-------------2-0---0-----0--0-|-7-------------7-6-6-------------|
  1   +   2   +   3   +   4   +    1   +   2   +   3   +   4   +




 |-------------------------------|---------------------------------|
 |-------------------------------|-------------P-I-A-N-O-----------|
 |-------------------------------|---------------------------------|
 |3---------------2--------------|---------------------------------|
  1   +   2   +   3   +   4   +              CHANGE TO 6/8
 Verse 5
 |-----------------------|-----------------------|
*|------------9----------|-----------------------|
*|------7----------------|-----------------------|
 |5----------------------|-----------------------|
  1 + 2 + 3 + 4 + 5 + 6 + 1 + 2 + 3 + 4 + 5 + 6 +
                                           (Last Note after verse 6)
 |-----------------------|-----------------------|   |---|
 |------------8---------p|7----------------------|*  |---|
 |------5----------------|-----------------------|*  |---|
 |3----------------------|-----------------------|   |-5-|
  1 + 2 + 3 + 4 + 5 + 6 + 1 + 2 + 3 + 4 + 5 + 6 +
 Verse 6
 |-----------------------|-----------------------|
*|-----------------------|------------7----------|
*|-----------------------|--------5h7---------7--|
 |10------10-\1-------1-/|5----------------------|
  1 + 2 + 3 + 4 + 5 + 6 + 1 + 2 + 3 + 4 + 5 + 6 +

 |-----------------------|-----------------------|
 |-----------------------|-----------------------|*
 |-----------------------|-----------------------|*
 |5-------5---7-------7--|6-------6-\-3-------3--|
  1 + 2 + 3 + 4 + 5 + 6 + 1 + 2 + 3 + 4 + 5 + 6 +




Verse 1 x3
Verse 2 x4
Verse 3 x4
Verse 2 x8
Verse 3 x8
Verse 4 x1
Verse 5 x2
Verse 6 x4
Verse 5 x3


END!

  Visit MetalTabs.com for more metal tablature

bottom separator

Contact Us | Privacy Policy | Disclaimer
Copyright © 2001-2014 MetalTabs.com. All Rights Reserved.