top separator

Home

Forum

What's New

Submit a Tab

FAQ

Links

Contact Us

Link to Us

MuSpy.com

MetalTabs.com logo

Bands

0-9

A

B

C

D

E

F

G

H

I

J

K

L

M

N

O

P

Q

R

S

T

U

V

W

X

Y

Z

Search

What

Where
 

Vile - "Aborted (The Fetus)" Guitar Tab

Plain Text Version
More Vile Tabs

Hits: 4600
Rated: 5.00 out of 5 (1 vote)
Updated: 2003-12-07 05:46:37

 

By:

BrutalGtrPlayer

sendpm.gif

email.gif

Important note
This tab is available online because we obtained explicit permission from Vile or their label.


#----------------------------------PLEASE NOTE---------------------------------#
#This file is the author's own work and represents their interpretation of the #
#song. You may only use this file for private study, scholarship, or research. #
#Unless specified otherwise, this is NOT an official tab from the band members.#
#------------------------------------------------------------------------------#

  Visit MetalTabs.com for more metal tablature
  
Band:  (Vile)
Album: (Stench of the Deceased)
Song:  (Abort the Fetus)

Copyright (c)  (Self-Financed) (1999)
Version 1.0 - (9/18/03)

Transcribed By: (Kevin Frasard)
Email:          (TheWholeFahKingShow@hotmail.com)


.  - palm mute           /  - slide up to
\  - slide down to       ~  - vibrato
h  - hammer on           b  - Bend
p  - pull off            Suffixes for bend
t  - tap                 f  - full bend    h - half bend
ph - pinched harmonic    q  - quarter bend t - tap bend
*  - see comment         ^  - Hold bend    r release bend
x  - Stuccatto           ~  - vibrato bend
,  - slight palm mute    () - ghost note, sustained note
"  - tremolo note        <> - Trill

Tunning A#/Bb(1/2 step down on a 7-string)



  Riff 1 (4x)                  Riff 2 (4x)
  p.m   p.m   p.m.........\     p.m...........\
-----------------------------|----------------------------|
-----------------------------|----------------------------|
-----------------------------|----------------------------|
-----888---666---------------|-----------------------333--|
--555---444---3336665553331--|-----------------222111-----|
-----------------------------|--000000000000000-----------|


  Riff 1 Riff 2
   (4x)   (3x)
                  p.m...........\
 |------|------|---------------------------|
 |------|------|---------------------------|
 |------|------|---------------------------|
 |------|------|-----------------------777-|
 |------|------|-----------------666555----|
 |------|------|--444444444444444----------|




  Riff 3 (4x)
  p.m...........\     p.m.................................\
----------------------------------------------------------------|
----------------------------------------------------------------|
------------------444-------------------------------------------|
--------------------------------------------------------555888--|
--334-4-3-2-2-3-2-----4-3-2-2-3-2-334-4-3-2-2-3-2-444777--------|
--112-2-1-0-0-1-0-----2-1-0-0-1-0-112-2-1-0-0-1-0---------------|




           Rhy. Fig. 1 (4x)
  p.m.\   p.m...................\
--------------------------------------|
--------------------------------------|
--------------------------------------|
--------6---------------5-------------|
------5---0-0-4-7-4-0-4---------------|
--4-5---------------------5-8-4-7-----|




  Riff 4 (4x)
  p.m............sl.p.m........p.m.................\
-----------------------------------------------------------------|
-----------------------------------------------------------------|
-----------------------------------------------------------------|
-----------------------------------------------------------------|
------------------888777-----------------------3-3-2-2-*2\3\4\5--|
--5-8-4-7-5-8-4-7-------555444-5-8-4-7-5-8-4-7-1-1-0-0-*0\1\2\3--|
* quick sl. w/light upstroke pick attack




   Rhy. Fig. 2 (9x)   Riff 1,  Riff 2
  p.m.\               (4x)     (3x)
--------------------|--------|--------|
--------------------|--------|--------|
--------------------|--------|--------|
--------------------|--------|--------|
--3-3-2-2-*2\3\4\5--|--------|--------|
--1-1-0-0-*0\1\2\3--|--------|--------|




                             Riff 3
  p.m....................\    (4x)
----------------------------|-------|
----------------------------|-------|
----------------------------|-------|
-----------------------777--|-------|
-----------------666555-----|-------|
--444444444444444-----------|-------|




                      *Rhy. Fig. 3 (2x)
     p.m......\         p.m\      p.m\      p.m......\         p.m\
--------------------------------------------------------------------
--------------------------------------------------------------------
--------------------------------------------------------------------
-----------------\4--3----------------------------------\4--3-------
-\6--1--2--1--0---------0--1--\6--2--1--\6--1--2--1--0---------0--1-
-----3--4--3--2---------2--3------4--3------3--4--3--2---------2--3-
* Not sure about this ending, hard to tell(Gtr.1 is muddier than Gtr. 2)
  I just tabbed what I could hear from Gtr. 2.





      p.m...\
---------------|
---------------|
---------------|
---------------|
--\6--2--1--0--|
------4--3--2--|


Riff 4 (4x)

Rhy. Fig. 2 (5x)

End

  Visit MetalTabs.com for more metal tablature

bottom separator

Contact Us | Privacy Policy | Disclaimer | Legal Notice
Copyright © 2001-2014 MetalTabs.com. All Rights Reserved.