top separator

Home

Forum

What's New

Submit a Tab

FAQ

Links

Contact Us

Link to Us

MetalTabs.com logo

Bands

0-9

A

B

C

D

E

F

G

H

I

J

K

L

M

N

O

P

Q

R

S

T

U

V

W

X

Y

Z

Search

What

Where
 

Mithotyn - "The old rover" Guitar Tab

Plain Text Version
More Mithotyn Tabs

Hits: 3129
Updated: 2003-12-01 16:01:55

 

Important note
This tab is available online because we obtained explicit permission from Mithotyn or their label.


#----------------------------------PLEASE NOTE---------------------------------#
#This file is the author's own work and represents their interpretation of the #
#song. You may only use this file for private study, scholarship, or research. #
#Unless specified otherwise, this is NOT an official tab from the band members.#
#------------------------------------------------------------------------------#

  Visit MetalTabs.com for more metal tablature
  
                        Mithotyn - THE OLD ROVER
                           Version 1.0 - NOV'03

Transcribed by: NON DVCOR DVCO (SÃO PAULO / BRASIL)

For Questions, Comments, Newest Version, or Corrections contact
 Rafael S.S at:  rfl2002@bol.com.br   r.tormentor@bol.com.br


Intro:

e|-------------------------------------------------------------------|
b|-------------------------------------------------------------------|
G|-------13-11----11-------------------------------------------------|
D|----11-------14----14-13--11-14-14-16-14-16-18---14-14-13--16--14--|
A|-11----------------------------------------------------------------|
D|-------------------------------------------------------------------|


e|----------------------------------------------------------------------------|
b|----------------------------------------------------------------------------|
G|-13-13----------16--13-13--13-----------------------------------------------|
D|-------14-14-18---------------16-13----13-16--16-18-14-11-14-16-14-13-9-11~-|
A|------------------------------------14--------------------------------------|
D|----------------------------------------------------------------------------|

  Visit MetalTabs.com for more metal tablature

bottom separator

Contact Us | Privacy Policy | Disclaimer | Legal Notice
Copyright © 2001-2014 MetalTabs.com. All Rights Reserved.