top separator

Home

Forum

What's New

Submit a Tab

FAQ

Links

Contact Us

Link to Us

MetalTabs.com logo

Bands

0-9

A

B

C

D

E

F

G

H

I

J

K

L

M

N

O

P

Q

R

S

T

U

V

W

X

Y

Z

Search

What

Where
 

Dying Fetus - "Praise the Lord (Opium of the Masses)" Guitar Tab

Plain Text Version
More Dying Fetus Tabs

Hits: 6296
Rated: 3.00 out of 5 (2 votes)
Updated: 2003-12-01 14:22:37

 

Important note
This tab is available online because we obtained explicit permission from Dying Fetus or their label.


#----------------------------------PLEASE NOTE---------------------------------#
#This file is the author's own work and represents their interpretation of the #
#song. You may only use this file for private study, scholarship, or research. #
#Unless specified otherwise, this is NOT an official tab from the band members.#
#------------------------------------------------------------------------------#

  Visit MetalTabs.com for more metal tablature
  
Dying Fetus
Praise the Lord
Destroy the Opposition
Transcribed by kALvA SoDoM

Tuned: (E-A-D-G-B-e)
RIFF A x 3
D-------4-5-------------------x3---------------------------------
A-4--3--2-3---4--3-2---5-3-2--  ---4-3---4-3-2-2---4-3---4-3-2-2-
E-2--1--------2--1-0---2-1-0--  -0-2-1-0-2-1-0-0-0-2-1-0-2-1-0-0-
                                 . . . . . . . . . . . . . . . .

RIFF B x 2
D--------------------------------------------
A-3---7h8p7-3---7h8p7-3---7h8p7-8h11p8-7h8p7-
E-1-0-------1-0-------1-0--------------------
    .         .         .

D---------------------------------------------
A-3---7h8p7-3---7h8p7-5h8p5-4h7p4-2h5p2-3h6p3-
E-1-0-------1-0-------------------------------
    .         .

D--------------------------------------------
A-3---7h8p7-3---7h8p7-3---7h8p7-8h11p8-7h8p7-
E-1-0-------1-0-------1-0--------------------
    .         .         .

D-10/11---9/10---8/9---9/10-
A-8-/-9---7/-8---6/7---7/-8-
E-------0------0-----0------
        .      .     .

RIFF C x 2
D-----------------x2-----------7---------x2
A-----------------  -7-10-9-10--10-9-10--
E-0-1-3-1-4-3-1-3-  ---------------------

RIFF D x 1
D----------------------------------
A---4---5---4---5---4---5---4---5--
E-0-2-0-3-0-2-0-3-0-2-0-3-0-2-0-3--

RIFF E x 1
e-----------------------------------------------------------------------
B-----------------------------------------------------------------------
G-------------------------------------------------------------13p6h8h10-
D---------------------13p6h8h10---------------------13p6h8h10-----------
A-----------13p6h8h10-----------13p6h8h10-13p6h8h10---------------------
E-13p6h8h10-------------------------------------------------------------

e--------------------------------------------------------------------------
B-----------------------------------------------------------------------8~-
G-------------------------------------------------------------13p6h8h10----
D---------------------13p6h8h10---------------------13p6h8h10--------------
A-----------13p6h8h10-----------13p6h8h10-13p6h8h10------------------------
E-13p6h8h10----------------------------------------------------------------

Play RIFF D x 1
then RIFF E x 1
then RIFF D x 1
then RIFF E x 1
then RIFF D x 1
then RIFF E x 1
then RIFF C x 2

RIFF F x 5
D---------------------------------|---------------------------------
A-2---3---5---------3-6---2-2-2-2-|-2---3---5---------3-6---2--2--2-
E-0---1---3---0-0---1-4---0-0-0-0-|-0---1---3---0-0---1-4---0--0--0-
              . .         . . . .               . .         .  .  .

RIFF G x 4
G----------------------------3~-
D-------------3---3/6--5--------
A-2---3---2--------------2-3----
E-0---1---0---1---1/4--3-0-1----
      .                  .

RIFF H x 2
e---------6h9p6--x4----------8h11p8---x2
B--------------7-  -----------------9-
G----------------  -------------------
D----------------  -------------------
A-6-9-6-7--------  -8-11-8-9----------
E----------------  -------------------
  . . . .           .  . . .

e-14p12p11--------14p12p11--------14p12p11-------------------------
B---------14p12p11--------14p12p11--------14p12p11-----------------
G-------------------------------------------------14p12p11---------
D---------------------------------------------------------14p12p11-
A------------------------------------------------------------------
E------------------------------------------------------------------

Second time, play this riff 3 times
e-14-12-11----------17-15-14----------14-12-11----------------------------
B----------14-12-11----------17-15-14----------14-12-11-------------------
G-------------------------------------------------------14-12-11----------
D----------------------------------------------------------------14-12-11-
A-------------------------------------------------------------------------
E-------------------------------------------------------------------------

RIFF I x 4
D------------------------------------
A-10-9-77--11-10-88--10-9-77--6-5-44-
E------------------------------------
   . . ..   .  . ..   . . ..  . . ..

RIFF J x 4
D---------------3-------------x3-----------------------------
A-3/7---5---3---1---5---4---5-  -3/7---3---5---6---5---6---3-
E-1/5---3---1-------3---2---3-  -1/5---1---3---4---3---4---1-

Play RIFF B x 2
end  RIFF A...


************************************
*  METAL RULES THIS FUCKING WORLD  *
************************************
*                                  *
*   Visit Daemonium website in:    *
*      www.daemonium.cjb.net       *
*                                  *
*     [kalva_dm@hotmail.com]       *
************************************

  Visit MetalTabs.com for more metal tablature

bottom separator

Contact Us | Privacy Policy | Disclaimer | Legal Notice
Copyright © 2001-2014 MetalTabs.com. All Rights Reserved.