top separator

Home

Forum

What's New

Submit a Tab

FAQ

Links

Contact Us

Link to Us

MetalTabs.com logo

Bands

0-9

A

B

C

D

E

F

G

H

I

J

K

L

M

N

O

P

Q

R

S

T

U

V

W

X

Y

Z

Search

What

Where
 

Dying Fetus - "Justifiable Homicide" Guitar Tab

Plain Text Version
More Dying Fetus Tabs

Hits: 3642
Rated: 3.00 out of 5 (1 vote)
Updated: 2003-12-01 14:21:47

 

Important note
This tab is available online because we obtained explicit permission from Dying Fetus or their label.


#----------------------------------PLEASE NOTE---------------------------------#
#This file is the author's own work and represents their interpretation of the #
#song. You may only use this file for private study, scholarship, or research. #
#Unless specified otherwise, this is NOT an official tab from the band members.#
#------------------------------------------------------------------------------#

  Visit MetalTabs.com for more metal tablature
  
Dying Fetus
Justiable Homicide
Destroy the Opposition
Transcribed by kALvA SoDoM

Tuned: (E-A-D-G-B-e)
RIFF A x 2
e--------------------------------------------------20-------
B-----------------------------------------------19----19----
G-----------------------------------------19h20---------19--
D------------------5-------------------17-------------------
A-5----4----5--3-----4-5----4-------17----------------------
E-3-00-2-00-3----2---203-00-2-15/17-------------------------
    ..   ..           .  ..

RIFF B x 4
D----------------------------------------------------------
A-5\4-----7/8-----5\4-----4\3-----5\4-----7/8--------------
E-3\2-0-0-5/6-0-0-3\2-0-0-2\1-0-0-3\2-0-0-5/6-0-0-333-333--
      . .     . .     . .     . .      . .    . . ... ...

D-------7----6-------
A--5----5----4-------
E--3-------------5~--fill


Play RIFF A x 2
then RIFF B x 4

RIFF C x 4    Part I                 Part II
D---------------------------------x3--------------------------
A-2-------------7---7---6---3-4-3-  -65----76----65----76-----
E-0---1-0-3~--0-5-0-5-0-4-0-1-2-1-  ----87----87----87----87--
      . .     .   .   .   . . . .    .. .. .. .. .. .. .. ..


Play RIFF C x 4 (Part II)

RIFF D x 8
D-----5--------4h5--------------------
A-3----------------4^----2---3-2-0-2--
E---2---2--3p2---------0---0----------

D-----------------
A---2---3-2-0-2~--
E-0---0-----------last

RIFF E x 1
D-----------------------------------------------------------
A-444444454---4444---4/5-4-5---444444454---8-7-6-7-6-5-6-4--
E-222222232---2222---2/3-2-3---222222232---6-5-4-5-4-3-4-2--
  .......     ....   . .       .......     . . . . . . . .

D--------------------------------------------------------
A-444444454---4444---4/5-4-5---444444454--2---4---5---4--
E-222222232---2222---2/3-2-3---222222232--0---2---3---2--
  .......     ....   . .       .......

RIFF F x 1
D----------------------------------
A-444-4-4-544-4-4-444-4-4-5-4-5/7--
E-222-2-2-322-2-2-222-2-2-3-2-3/5--
  ... . . ... . . ... . .

D---------------------------------- |------------
A-444-4-4-544-4-4-8-7-6-7-6-5-6-4-- |-2--4--5--4-
E-222-2-2-322-2-2-6-5-4-5-4-3-4-2-- |-0--2--3--2-fill
  ... . . ... . . . . . . . . . .


Play RIFF E x 1
then RIFF F x 1

D--------------5------
A-2------------3---3--
E-0----------------1--fill
    solo drums .   .


RIFF G x 2
D-------7-7---------------5-----------------7---------------5------
A-2---5-5-5-5-3-2---3-2-3-3-3-2-3---2---5-2-5-5-3-2---3-2-3-3---3--
E-0---3-----3-1-0---1-0-1---1-0-1---0---3-0---3-1-0---1-0-1-----1--
      . . . . .     . . . . . . .       . . . . .     . . . .   .


Play RIFF G x 2 (no p.m.)
then RIFF A x 2
then RIFF B x 4
solo drums

RIFF H x 1
D--------------------------------
A---------3------8\7---4----4/5--
E-000-0-0-1--0-0-6\5-0-2--0-2/3--
  ... . .    . .     .    .

RIFF I x 3
D----------------------------------
A-2---4-2-4-5---8---2-4-2-4-5-4-2--
E-0---2-0-2-3-0-6---0-2-0-2-3-2-0--
      . . . . .     . . . . . . .

Play RIFF H x 1
then RIFF I x 3
then RIFF H x 1

RIFF J x 1        Part I          Part II
D-------------------------------- ---------------------------------
A-2---2---4/5---8---2-4-2-4-5-4-- -2---2---4/5---8---2-4-2-4-5-----
E-0---0---2/3-0-6---0-2-0-2-3-2-- -0---0---2/3-0-6---0-2-0-2-3-3~--
                    . . . . . .                      . . . . .

then RIFF H x 1
then RIFF J x 1
end RIFF H x 1
D-----------------------------------------
A---------3------8\7---4----4/5---5-4--2--
E-000-0-0-1--0-0-6\5-0-2--0-2/3-0-2-3--0--
  ... . .    . .     .    .       . .


************************************
*  METAL RULES THIS FUCKING WORLD  *
************************************
*                                  *
*   Visit Daemonium website in:    *
*      www.daemonium.cjb.net       *
*                                  *
*     [kalva_dm@hotmail.com]       *
************************************

  Visit MetalTabs.com for more metal tablature

bottom separator

Contact Us | Privacy Policy | Disclaimer | Legal Notice
Copyright © 2001-2014 MetalTabs.com. All Rights Reserved.