top separator

Home

Forum

What's New

Submit a Tab

FAQ

Links

Contact Us

Link to Us

MetalTabs.com logo

Bands

0-9

A

B

C

D

E

F

G

H

I

J

K

L

M

N

O

P

Q

R

S

T

U

V

W

X

Y

Z

Search

What

Where
 

Quo Vadis - "Dream" Guitar Tab

Plain Text Version
More Quo Vadis Tabs

Hits: 9118
Rated: 3.88 out of 5 (8 votes)
Updated: 2003-11-30 15:12:10

 

Important note
We did our best to reach Quo Vadis and ask for their permission to publish this tab. Unfortunately they did not respond to our requests or we could not find a way to contact them. This tab is available online until Quo Vadis tells us to take it down.


#----------------------------------PLEASE NOTE---------------------------------#
#This file is the author's own work and represents their interpretation of the #
#song. You may only use this file for private study, scholarship, or research. #
#Unless specified otherwise, this is NOT an official tab from the band members.#
#------------------------------------------------------------------------------#

  Visit MetalTabs.com for more metal tablature
  
DREAM
QUO VADIS
DAY INTO NIGHT

////////PLEASE DO NOT COPY THIS TAB TO ANOTHER SITE
WITHOUT AUTHORS' PERMISSION.  THANK YOU.\\\\\\\\\\\

Transfigured by Jaafar Kadom, you can reach at always_aplayer@hotmail.com, for any comments.

This band plays in standard tuning.
I have only made the tabs for Guitar 1
because its hard hearing Guitar 2 in the back round,
and the solo is friken hard to play, but I guarantee
you some of it is right. This song is straight forward so
I don’t think you’ll have a lot of problems playing it.

INTRO

GUITAR 1                             EVERYTHING IS GUITAR 1
           CLEAN
e|--------------------------|
B|--------------------------|
G|-----7--9--7—10/12-9------|
D|---7----------------------|
A|-5------------------------|
E|--------------------------|


e|--------------------------|
B|--------------------------|
G|-----5--9—9h10--7---------|
D|---5----------------------|
A|-3------------------------|
E|--------------------------|


e|--------------------------|
B|--------------------------|
G|-----3--7--5-7/10-9h10p9-7|
D|---3----------------------|
A|-1------------------------|
E|--------------------------|


e|-----0-------|
B|-------------|
G|-------5-----|
D|---5-----5---|
A|-3-----------|
E|-------------|


e|-----------------|---------------------|
B|------6-5-—565p3-|---------------------|
G|----------5------|-----3-2--2----------|
D|---7-------------|---3--------5p2------|
A|-5---------------|-5--------------3----|
E|-----------------|---------------------|

e|-----------------|---------------------|
B|------6-5-—565p3-|---------------------|
G|----------5------|-----3-2--2----------|
D|---7-------------|---3--------2h3-5----|
A|-5---------------|-5-------------------|
E|-----------------|---------------------|

e|---10---------------------------------------------------|
B|------10------------------------------------------------|
G|-----------9-10-12-10-9------12-12-9-10-----5h7p5---55--|
D|-0----------------------12------------------------8-----|
A|--------------------------------------------------------|
E|--------------------------------------------------------|

e|------------------------------------------10------|
B|-8-10-11-10\------------11-10h11p10----10---------|
G|-------------8-10-------------------12-------12---|
D|------------------10------------------------------|
A|--------------------------------------------------|
E|--------------------------------------------------|

e|--------------------------|
B|--------------------------|
G|-----5-4/7----------------|
D|---5-------7-5-7-4--------|
A|-7-----------------5------|
E|--------------------------|

e|--------------------------|
B|--------------------------|
G|-----5-4/7----------------|
D|---5-------7-5-7-4--------|
A|-7-----------------5------|
E|--------------------------|


e|-------7----------7-5-----|
B|-5-7-8---8-7-5------------|
G|--------------------------|
D|--------------------------|
A|--------------------------|
E|--------------------------|

e|-------7------------------|
B|-5-7-8----8-7-77-8-7~-----|
G|--------------------------|
D|--------------------------|
A|--------------------------|
E|--------------------------|

e|-------7----------7-5-----|
B|-5-7-8---8-7-5------------|
G|--------------------------|
D|--------------------------|
A|--------------------------|
E|--------------------------|

e|-------7------------------|
B|-5-7-8----8-7-77-8-7~-----|
G|--------------------------|
D|--------------------------|
A|--------------------------|
E|--------------------------|

e|------------------------------|
B|-----6-8-6--------------------|
G|-7-9-------9-----7-9-10-9-7~--|
D|--------------10--------------|
A|------------------------------|
E|------------------------------|

e|------------------------------------10~-|
B|------10-8------------------------10----|
G|-77h9------10-1212-9-1010~---1212-------|
D|----------------------------------------|
A|----------------------------------------|
E|----------------------------------------|

e|----------------------------------------|
B|------10-8------------------------10~----|
G|-77h9------10-1212-9-1010~---77h9-------|
D|----------------------------------------|
A|----------------------------------------|
E|----------------------------------------|


e|--------------------------|
B|--------------------------|
G|--------------------------|
D|--------------------------|
A|--------------------------|
E|--------------------------|

e|--------------------------|
B|--------------------------|
G|--------------------------|
D|--------------------------|
A|--------------------------|
E|--------------------------|


e|--------------------------------|
B|--------------------------------|
G|-------4--------------5-7h9-7---|
D|---4-5---5-4------5-7-----------|
A|-7-----------7--7---------------|
E|--------------------------------|

e|----------------------------|
B|----------------------------|
G|---------8-10/12\10-9-------|
D|----8-10--------------10----|
A|-10-------------------------|
E|----------------------------|




e|---------------------|
B|---------------------|
G|---------------------|
D|----------7/9/10-----|
A|------7-9------------|
E|-8-10----------------|

e|------------------------------|
B|------------------------------|
G|----------8/10/-12—8h10--10---|
D|--------9---------------8--8--|
A|-7-9-10-----------------------|
E|------------------------------|

e|-------------------------------|
B|---13--15-----16-13------------|
G|-12--12---15-------------------|
D|--------------------15-13-1515-|
A|-------------------------------|
E|-------------------------------|

                      Distortion
e|----------12--14--------------11-11h12p11-11h12-----|
B|-12h14~-14--14--12-14~--12-14------------------14---|
G|----------------------------------------------------|
D|----------------------------------------------------|
A|----------------------------------------------------|
E|----------------------------------------------------|

e|-------12-14~14-12~11~---------16-17-16h17p16---------------------|
B|-12-14-----------------14-16-17--------------17-16-14-------------|
G|------------------------------------------------------14-13-14-13~|
D|------------------------------------------------------------------|
A|------------------------------------------------------------------|
E|------------------------------------------------------------------|

e|-----------------------------------------|
B|-----------------------------------------|
G|-10^12--9-11-12*~-9-11h12p11-------------|
D|----------------------------14-12/14~----|
A|-----------------------------------------|
E|-----------------------------------------|

e|--------------------------|
B|--------------------------|
G|--------------------------|
D|--------------------------|
A|--------------------------|
E|--------------------------|





                   CLEAN
e|----------------------------|
B|------------------------10--|
G|---7-7/9-7------10-9p7-9----|
D|-7--------8-7~--------------|
A|----------------------------|
E|----------------------------|

eb|------------------|
B|-6--6--6-5--5--5--|
G|--7--7----7--7----|
D|---8--8----7--7---|
A|------------------|
E|------------------|

e|---------------------------------------------------|
B|------------------------------------------------11-|
G|-10---7-9-10—7h9-7~--7-9-10-10/12-10------10-12----|
D|---7--------7-----------------------10~-10---------|
A|---------------------------------------------------|
E|---------------------------------------------------|

e|----------------------------|
B|------------------------10--|
G|---7-7/9-7------10-9p7-9----|
D|-7--------8-7~--------------|
A|----------------------------|
E|----------------------------|

e|------------------|
B|-6--6--6-5--5--5--|
G|--7--7----7--7----|
D|---8--8----7--7---|
A|------------------|
E|------------------|

e|-------------------|
B|-------------------|
G|-10--7-9-10—7h9-7~-|
D|---7-------7-------|
A|-------------------|
E|-------------------|


                                CLEAN
e|------10-12-13—13~--10h12-----------------------------|
B|-10-13--------10----------11-1010-11-10---------------|
G|----------------------------------------10-9h10p9-10--|
D|------------------------------------------------------|
A|------------------------------------------------------|
E|------------------------------------------------------|




e|------------------------10^12-10-10h12------------------------|
B|----------------10--10-----------------11-1010-11-10----------|
G|-7------10--9---------------------------------------10-9-10~--|
D|----10--------------------------------------------------------|
A|--------------------------------------------------------------|
E|--------------------------------------------------------------|

e|---------------|
B|---------------|
G|-7------10--9--|
D|----10---------|
A|---------------|
E|---------------|

Tablature Legend

h – hammer on
p – pull off
^ - bend full step
\\// - slide up, or down
~ - vibrato

I didn’t want to make this tab look real professional
because I was lazy, but it’s not that bad. You can
still read it, so enjoy; this song is crazy.

  Visit MetalTabs.com for more metal tablature

bottom separator

Contact Us | Privacy Policy | Disclaimer | Legal Notice
Copyright © 2001-2014 MetalTabs.com. All Rights Reserved.