top separator

Home

Forum

What's New

Submit a Tab

FAQ

Links

Contact Us

Link to Us

MetalTabs.com logo

Bands

0-9

A

B

C

D

E

F

G

H

I

J

K

L

M

N

O

P

Q

R

S

T

U

V

W

X

Y

Z

Search

What

Where
 

Timo Rautiainen & Trio Niskalaukaus - "kuusikymmentäkaksi" Guitar Tab

Plain Text Version
More Timo Rautiainen & Trio Niskalaukaus Tabs

Hits: 9051
Rated: 4.67 out of 5 (15 votes)
Updated: 2003-11-30 15:06:22

 

Important note
We did our best to reach Timo Rautiainen & Trio Niskalaukaus and ask for their permission to publish this tab. Unfortunately they did not respond to our requests or we could not find a way to contact them. This tab is available online until Timo Rautiainen & Trio Niskalaukaus tells us to take it down.


#----------------------------------PLEASE NOTE---------------------------------#
#This file is the author's own work and represents their interpretation of the #
#song. You may only use this file for private study, scholarship, or research. #
#Unless specified otherwise, this is NOT an official tab from the band members.#
#------------------------------------------------------------------------------#

  Visit MetalTabs.com for more metal tablature
  
Song: Kuusikymmentäkaksi
Artist: Timo Rautiainen & Trio Niskalaukaus
Album: Itku Pitkästä Ilosta

Tabbed by Tony Danielsbacka (qlael@mbnet.fi)
Date started tab: 9/11/03
Date finished tab: 9/15/03

Tuning: Dropped D (DADGBe)

Notation Key
x: palm mute
h: hammer-on
/: slide up
\: slide down

Comments:  Easy to play and VERY heavy!
If you spot any mistakes or if you have any questions, feel free to e-mail me.
================================================================================


Guitar 2
Riff 1				 Fill 1
e|------------------------------|--------------------------------
B|------------------------------|--------------------------------
G|------------------------------|--------------------------------
D|--7-5-8--8-8/10-5-7--7--------|--7-5-8--8-8/10-5-8-8/10-5------
A|--5-3-6--6-6/8--3-5--5--------|--5-3-6--6-6/8--3-6-6/8--3------
D|-----------------------0-0-0--|--------------------------------
                         x x x
Guitars 1&3
Riff 1				 Fill 1
e|------------------------------|--------------------------------
B|------------------------------|--------------------------------
G|------------------------------|--------------------------------
D|------------------------------|--------------------------------
A|--0-3-1--1-1/3-3-0--0-0-0-0---|--0-3-1--1-1/3-3-1-1/3-3--------
D|--0-5-1--1-1/3-5-0--0-0-0-0---|--0-3-1--1-1/3-5-1-1/3-5--------
                        x x x



Guitar 1
Riff 2
e|---------------------------------------------------------------
B|------------------------------------------------13-------------
G|--14-12---15--15-15-15-14-12-14--14-12---15--15----15-14-12----
D|---------------------------------------------------------------
A|---------------------------------------------------------------
D|---------------------------------------------------------------

Guitar 2
Riff 2
e|---------------------------------------------------------------
B|---------------------------------------------------------------
G|---------------------------------------------------------------
D|------7-5-----8--8-8-8-7-5-7-----7-5-----8--8-10-8-7-5---------
A|------5-3-----6--6-6-6-5-3-5-----5-3-----6--6-8--6-5-3---------
D|--0-0-----0-0----------------0-0-----0-0-----------------------
    x x     x x                x x     x x

Guitar 3
Riff 2
e|---------------------------------------------------------------
B|---------------------------------------------------------------
G|---------------------------------------------------------------
D|---------------------------------------------------------------
A|------0-3-----1--1-1-1-0-3-0-----0-3-----1--1-3-1-0-3----------
D|--0-0-0-5-0-0-1--1-1-1-0-5-0-0-0-0-5-0-0-1--1-3-1-0-5----------
    x x     x x                x x     x x



Guitar 1			     Guitar 1
Riff 3			   	     Riff 4
e|----------------------------------|-----------------------------
B|----------------------------------|-----------------13----------
G|----------------------------------|--14--12--15--15----12-------
D|----------------------------------|-----------------------------
A|--0-0-0-0-3-3-3-3-1-1-1-1-1-0-5-0-|-----------------------------
D|--0-0-0-0-5-5-5-5-1-1-1-1-1-0-5-0-|-----------------------------
    x x x x x x x x x x x x x x x x
								   Guitar 2
Guitar 2			     Guitar 2			   Riff 4 (end)
Riff 3		        	     Riff 4			  (fourth time)*
e|------------------------------|-------------------------------- |-------------
B|------------------------------|-------------------------------- |-------------
G|------------------------------|-----------------------(------)* |-------------
D|------------------------------|7-7-7-7-5-5-5-5-8-8-8-8-8-10-8-5 |--8/10-5-----
A|--7---5---8---8--7--5---------|5-5-5-5-3-3-3-3-6-6-6-6-6-8--6-3 |--6/8--3-----
D|--5---3---6---6--5--3---------|-------------------------------- |-------------
				 x x x x x x x x x x x x x x  x x
								   Guitar 3
Guitar 3			     Guitar 3			   Riff 4 (end)
Riff 3		        	     Riff 4			  (fourth time)*
e|------------------------------|-------------------------------- |-------------
B|------------------------------|-------------------------------- |-------------
G|------------------------------|-------------------------------- |-------------
D|------------------------------|-----------------------(------)* |-------------
A|--0---3---1---1--0--3---------|0-0-0-0-3-3-3-3-1-1-1-1-1-3-1-3- |--1h3-1/3----
D|--0---5---1---1--0--5---------|0-0-0-0-5-5-5-5-1-1-1-1-1-3-1-5- |--1h3-1h5----
				 x x x x x x x x x x x x x x x x



Guitar 1			 Guitar 1
Riff 5		        	 Fill 2 (solo)
e|------------------------------|--------------------------------
B|------------------------------|--------------------------------
G|--7--5--8/10-10-10-10-10\8-5--|7-7-7-7-8-8-8-8-10-10-10-10-11-11-11-11-
D|------------------------------|--------------------------------
A|------------------------------|--------------------------------
D|------------------------------|--------------------------------


Guitar 2
Riff 5
e|---------------------------------------------------------------
B|---------------------------------------------------------------
G|---------------------------------------------------------------
D|--7-----5-----8/10-10-10-10\8-5--------------------------------
A|--5-----3-----6/8--8--8---8\6-3--------------------------------
D|----0-0---0-0--------------------------------------------------
      x x   x x

Guitar 3
Riff 5
e|---------------------------------------------------------------
B|---------------------------------------------------------------
G|---------------------------------------------------------------
D|---------------------------------------------------------------
A|--0-----3-----1h3-3-3-3h1-3------------------------------------
D|--0-0-0-5-0-0-1h3-3-3-3h1-5------------------------------------
      x x   x x



Guitar 1
Fill 3
e|---------------------------------------------------------------
B|-----------------------------------6---------------------------
G|--7-5---8--8-8-8h7-5h7--7-5---8--8---8h7-5---------------------
D|---------------------------------------------------------------
A|---------------------------------------------------------------
D|---------------------------------------------------------------




Guitar 2
Fill 4
e|--------------------------------
B|--------------------------------
G|--------------------------------
D|--7-5-8--8-8/10-5-7\------------
A|--5-3-6--6-6/8--3-5\------------
D|--------------------------------


Guitars 1&3
Fill 4
e|--------------------------------
B|--------------------------------
G|--------------------------------
D|--------------------------------
A|--0-3-1--1-1/3-3-5\-------------
D|--0-3-1--1-1/3-5-7\-------------



    Order of play

Riff 1 (3x)
Fill 1 (1x)
Riff 2 (4x)
Riff 3 (8x)
Riff 4 (4x)
[Only Guitars 2&3
[Riff 2 (4x)

Riff 3 (8x)
Riff 4 (4x)
[Only Guitars 2&3
[Riff 2 (4x)

[Guitar 1    [Guitars 2&3
[Riff 5 (4x) [Riff 5 (4x)
[Fill 2 (4x) [Riff 5 (4x)

Riff 3 (8x)
Riff 4 (4x)
[Guitar 1    [Guitars 2&3
[            [Riff 2 (4x)
[Fill 3 (4x) [Riff 2 (4x)

Riff 1 (3x)
Fill 4 (1x)

  Visit MetalTabs.com for more metal tablature

bottom separator

Contact Us | Privacy Policy | Disclaimer | Legal Notice
Copyright © 2001-2014 MetalTabs.com. All Rights Reserved.