top separator

Home

Forum

What's New

Submit a Tab

FAQ

Links

Contact Us

Link to Us

MuSpy.com

MetalTabs.com logo

Bands

0-9

A

B

C

D

E

F

G

H

I

J

K

L

M

N

O

P

Q

R

S

T

U

V

W

X

Y

Z

Search

What

Where
 

Timo Rautiainen & Trio Niskalaukaus - "alavilla mailla" Guitar Tab

Plain Text Version
More Timo Rautiainen & Trio Niskalaukaus Tabs

Hits: 6242
Rated: 5.00 out of 5 (11 votes)
Updated: 2003-11-30 15:04:20

 

Important note
We did our best to reach Timo Rautiainen & Trio Niskalaukaus and ask for their permission to publish this tab. Unfortunately they did not respond to our requests or we could not find a way to contact them. This tab is available online until Timo Rautiainen & Trio Niskalaukaus tells us to take it down.


#----------------------------------PLEASE NOTE---------------------------------#
#This file is the author's own work and represents their interpretation of the #
#song. You may only use this file for private study, scholarship, or research. #
#Unless specified otherwise, this is NOT an official tab from the band members.#
#------------------------------------------------------------------------------#

  Visit MetalTabs.com for more metal tablature
  
Song: Alavilla Mailla
Artist: Timo Rautiainen & Trio Niskalaukaus
Album: Lopunajan Merkit

Tabbed by Tony Danielsbacka (qlael@mbnet.fi)
Date started tab: 9/11/03
Date finished tab: 9/11/03

Tuning: Dropped D (DADGBe)

Notation Key
x: palm mute
~: vibrato
h: hammer-on
/: slide up


Comments: This is very slow and heavy song.
If you play it whit feeling it will sounds great!
If you spot any mistakes, feel free to e-mail me.
===============================================================================


Guitar 1
Riff 1							2x
e|--5---------------------------------5---5---5------------------
B|----8-6-5-6---6-5------6/8------6-8-------8---8-6--------------
G|-------------------7-5--------5--------------------------------
D|---------------------------------------------------------------
A|---------------------------------------------------------------
D|---------------------------------------------------------------

e|--5------------------------------------------------------------
B|----8-6-5-6---6-5------6---6-5---------------------------------
G|-------------------7-5---------5-7---5-5-5---------------------
D|---------------------------------------------------------------
A|---------------------------------------------------------------
D|---------------------------------------------------------------



Guitar 1
Riff 2							2x
e|---------------------------------------------------------------
B|--5h6-6-6---6-6-5---------5h6-6-6---6-6/8-8-6-8~---------------
G|------------------7-55-7---------------------------------------
D|---------------------------------------------------------------
A|---------------------------------------------------------------
D|---------------------------------------------------------------

e|---------------------------------------------------------------
B|--5h6-6-6---6-6-5---------5h6-6-6-5----------------------------
G|------------------7-55-7-----------7-5-5-7---------------------
D|---------------------------------------------------------------
A|---------------------------------------------------------------
D|---------------------------------------------------------------

Guitar 2
Riff 2							2x
e|---------------------------------------------------------------
B|---------------------------------------------------------------
G|---------------------------------------------------------------
D|--------------------------------------------5--5-5---5---------
A|--------------------------------------------3--3-3-0-3---------
D|--0-0--0-0-0--0-0-0--0-0-0--0-0-0--0-0-0--0--------------------
    x x  x x x  x x x  x x x  x x x  x x x  x
e|---------------------------------------------------------------
B|---------------------------------------------------------------
G|---------------------------------------------------------------
D|--------------------------------------------5-5-7--------------
A|--------------------------------------------3-3-5--------------
D|--0-0--0-0-0--0-0-0--0-0-0--0-0-0--0-0-0--0--------------------
    x x  x x x  x x x  x x x  x x x  x x x  x


Guitars 1&2
Riff 3							2x
e|---------------------------------------------------------------
B|---------------------------------------------------------------
G|---------------------------------------------------------------
D|--------------------------------------------5--5-5---5---------
A|--------------------------------------------3--3-3-0-3---------
D|--0-0--0-0-0--0-0-0--0-0-0--0-0-0--0-0-0--0--------------------
    x x  x x x  x x x  x x x  x x x  x x x  x
e|---------------------------------------------------------------
B|---------------------------------------------------------------
G|---------------------------------------------------------------
D|--------------------------------------------5-5-7--------------
A|--------------------------------------------3-3-5--------------
D|--0-0--0-0-0--0-0-0--0-0-0--0-0-0--0-0-0--0--------------------
    x x  x x x  x x x  x x x  x x x  x x x  x


Guitar 1
Riff 4		        3x	  Fill 1		1x
e|--------------------------5----|-------------------------------
B|--6---------------6-6---6---8--|--6---------------9-9-9---8-8-8
G|----7-7-5-7---7-------7--------|----7-7-5-7---7----------------
D|-------------------------------|-------------------------------
A|-------------------------------|-------------------------------
D|-------------------------------|-------------------------------

Guitar 2
Riff 4			3x	  Fill 1		1x
e|-------------------------------|-------------------------------
B|-------------------------------|-------------------------------
G|-------------------------------|-------------------------------
D|-------------------------------|-------------------------------
A|--3-0-0-3-0---0---3-3-0-3-7-5--|--3-0-0-3-0---0---6-6-6---5-5-5
D|--3-0-0-5-0---0---3-3-0-3-7-5--|--3-0-0-5-0---0---6-6-6---5-5-5
      x x                             x x


Guitars 1&2
Riff 5							2x
e|---------------------------------------------------------------
B|---------------------------------------------------------------
G|---------------------------------------------------------------
D|--------------------------------------------5--5-5---5---------
A|--0-0--0-0-0--0-0-0--0-0-0--0-0-0--0-0-0--0-3--3-3-0-3---------
D|--0-0--0-0-0--0-0-0--0-0-0--0-0-0--0-0-0--0--------------------

e|---------------------------------------------------------------
B|---------------------------------------------------------------
G|---------------------------------------------------------------
D|--------------------------------------------5-5-7--------------
A|--0-0--0-0-0--0-0-0--0-0-0--0-0-0--0-0-0--0-3-3-5--------------
D|--0-0--0-0-0--0-0-0--0-0-0--0-0-0--0-0-0--0--------------------



Guitar 1
Riff 4		        3x	  Fill 1		1x
e|--------------------------5----|-------------------------------
B|--6---------------6-6---6---8--|--6---------------9-9-9---8-8-8
G|----7-7-5-7---7-------7--------|----7-7-5-7---7----------------
D|-------------------------------|-------------------------------
A|-------------------------------|-------------------------------
D|-------------------------------|-------------------------------

Guitar 2
Riff 4			3x	  Fill 1		1x
e|-------------------------------|-------------------------------
B|-------------------------------|-------------------------------
G|-------------------------------|-------------------------------
D|-------------------------------|-------------------------------
A|--3-0-0-3-0---0---3-3-0-3-7-5--|--3-0-0-3-0---0---6-6-6---5-5-5
D|--3-0-0-5-0---0---3-3-0-3-7-5--|--3-0-0-5-0---0---6-6-6---5-5-5
      x x                             x x


Guitars 1&2
Riff 3							1x
e|---------------------------------------------------------------
B|---------------------------------------------------------------
G|---------------------------------------------------------------
D|--------------------------------------------5--5-5---5---------
A|--------------------------------------------3--3-3-0-3---------
D|--0-0--0-0-0--0-0-0--0-0-0--0-0-0--0-0-0--0--------------------
    x x  x x x  x x x  x x x  x x x  x x x  x
e|---------------------------------------------------------------
B|---------------------------------------------------------------
G|---------------------------------------------------------------
D|--------------------------------------------5-5-7--------------
A|--------------------------------------------3-3-5--------------
D|--0-0--0-0-0--0-0-0--0-0-0--0-0-0--0-0-0--0--------------------
    x x  x x x  x x x  x x x  x x x  x x x  x


Guitars 1&2
Riff 5							2x
e|---------------------------------------------------------------
B|---------------------------------------------------------------
G|---------------------------------------------------------------
D|--------------------------------------------5--5-5---5---------
A|--0-0--0-0-0--0-0-0--0-0-0--0-0-0--0-0-0--0-3--3-3-0-3---------
D|--0-0--0-0-0--0-0-0--0-0-0--0-0-0--0-0-0--0--------------------

e|---------------------------------------------------------------
B|---------------------------------------------------------------
G|---------------------------------------------------------------
D|--------------------------------------------5-5-7--------------
A|--0-0--0-0-0--0-0-0--0-0-0--0-0-0--0-0-0--0-3-3-5--------------
D|--0-0--0-0-0--0-0-0--0-0-0--0-0-0--0-0-0--0--------------------



Guitar 1
Riff 1							3x
e|--5---------------------------------5---5---5------------------
B|----8-6-5-6---6-5------6/8------6-8-------8---8-6--------------
G|-------------------7-5--------5--------------------------------
D|---------------------------------------------------------------
A|---------------------------------------------------------------
D|---------------------------------------------------------------

e|--5------------------------------------------------------------
B|----8-6-5-6---6-5------6---6-5---------------------------------
G|-------------------7-5---------5-7---5-5-5---------------------
D|---------------------------------------------------------------
A|---------------------------------------------------------------
D|---------------------------------------------------------------



Guitar 1
Fill 2							1x
e|--5---------------------------------5---5---5------------------
B|----8-6-5-6---6-5------6/8------6-8-------8---8-6--------------
G|-------------------7-5--------5--------------------------------
D|---------------------------------------------------------------
A|---------------------------------------------------------------
D|---------------------------------------------------------------

e|--5------------------------------------------------------------
B|----8-6-5-6---6-5------6---6-5---------------------------------
G|-------------------7-5---------5-7-----------------------------
D|---------------------------------------------------------------
A|---------------------------------------------------------------
D|---------------------------------------------------------------
			  slowly end

  Visit MetalTabs.com for more metal tablature

bottom separator

Contact Us | Privacy Policy | Disclaimer | Legal Notice
Copyright © 2001-2014 MetalTabs.com. All Rights Reserved.