top separator

Home

Forum

What's New

Submit a Tab

FAQ

Links

Contact Us

Link to Us

MetalTabs.com logo

Bands

0-9

A

B

C

D

E

F

G

H

I

J

K

L

M

N

O

P

Q

R

S

T

U

V

W

X

Y

Z

Search

What

Where
 

My Dying Bride - "Turn Loose the Swans" Guitar Tab

Plain Text Version
More My Dying Bride Tabs

Hits: 6717
Rated: 3.57 out of 5 (7 votes)
Updated: 2001-06-04 08:02:24

 

Important note
This tab is available online because we obtained explicit permission from My Dying Bride or their label.


#----------------------------------PLEASE NOTE---------------------------------#
#This file is the author's own work and represents their interpretation of the #
#song. You may only use this file for private study, scholarship, or research. #
#Unless specified otherwise, this is NOT an official tab from the band members.#
#------------------------------------------------------------------------------#

  Visit MetalTabs.com for more metal tablature
  
Taken with permission from www.MyDyingBride.org

Turn Loose the Swans
riff one
|-------------------|-------------------------|-------------------
|-------------------|-------------------------|-------------------
|-------------------|-------------------------|-------------------
|-------------------|-------------------------|------8p7-7h8-8p7--
|-------6p5-5h6-6p5-|-----2/3-3/5-5h6-6p5-5h6-|--6-6--------------
|--3-3--------------|-2-2---------------------|-------------------

                 first repeat    second repeat
-----------------------------|
                             |
|----------------------------|-------------------|
|----------------------------|-------------------|
|----------------------------|-------------------|
|------5/7-7h8-8/10-10\8-8\7-|---5-5/7-8-7-7-8-7-|
|--5-5-----------------------|-------------------|
|----------------------------|-------------------|


riff two                                   four times
|--------|-----------------|-------|-------------------|
|--------|-----------------|-------|-------------------|
|o-------|-----------------|-------|------------------o|
|o---6-6-|---6-6--5-5--8-7-|---6-6-|-5-6--4-----------o|
|--7-4-4-|-7-4-4--3-3--6-5-|-7-4-4-|-3-4--2-5--4-7-3---|
|--5-----|-5---------------|-5-----|--------3--2-5-1---|


|-------------------|-------------------------|-------------------
|-------------------|-------------------------|-------------------
|-------------------|-------------------------|-------------------
|-------------------|-------------------------|------8p7-7h8-8p7--
|-------6p5-5h6-6p5-|-----2/3-3/5-5h6-6p5-5h6-|--6-6--------------
|--3-3--------------|-2-2---------------------|-------------------

                 first repeat    second repeat
-----------------------------|
                             |
|----------------------------|-------------------|
|----------------------------|-------------------|
|----------------------------|-------------------|
|------5/7-7h8-8/10-10\8-8\7-|---5-5/7-8-7-7-8-7-|
|--5-5-----------------------|-------------------|
|----------------------------|-------------------|

                                                                                         six times
|---------------|----------|-------------|--------------|
|---------------|----------|-------------|--------------|
|o--------------|----------|-------------|-------------o|
|o-7------5-8-7-|-6--7-6ah-|-3-3-4-3-1-3-|-5-3-2-5-3-2-o|
|--5--7-8-------|-4--------|-1-----------|-3------------|
|---------------|----------|-------------|--------------|
     |--pm-----|

                                 four times
|--------|--------|--------|--------------|------------------
|--------|--------|--------|-trill--------|-trill------------
|o-------|--------|--------|-45454-------o|-45454------------
|o-------|--------|--------|-------6-5-3-o|-------6-5-3------
|-2-2-3--|-2-2-4--|-2-2-3--|--------------|------------------
|-0-0-1--|-0-0-2--|-0-0-1--|--------------|------------------

thunder sound effects

                                 four times
|--------|--------|--------|--------------|
|--------|--------|--------|-trill--------|
|o-------|--------|--------|-45454-------o|
|o-------|--------|--------|-------6-5-3-o|
|-2-2-3--|-2-2-4--|-2-2-3--|--------------|
|-0-0-1--|-0-0-2--|-0-0-1--|--------------|

                                                  two times
|--------------|-------------|-------------|--------------|
|--------------|-------------|-------------|-trill--------|
|o-------------|-------------|-------------|-45454-------o|
|o-------------|-------------|-------------|-------6-5-3-o|
|--2-2-3-------|-2-2-4-------|-2-2-3-------|--------------|
|--0-0-1-------|-0-0-2-------|-0-0-1-------|--------------|
|              |             |             |              |
|--------------|-------------|-------------|--------------|
|--------------|-------------|-------------|--------------|
|o-45454-------|-45454-------|-45454-------|-45454-------o|
|o-------6-5-3-|-------6-5-3-|-------6-5-3-|-------6-5-3-o|
|--------------|-------------|-------------|--------------|
|--------------|-------------|-------------|--------------|

                                four times
|--------|--------|--------|--------------|
|--------|--------|--------|-trill--------|
|o-------|--------|--------|-45454-------o|
|o-------|--------|--------|-------6-5-3-o|
|-2-2-3--|-2-2-4--|-2-2-3--|--------------|
|-0-0-1--|-0-0-2--|-0-0-1--|--------------|


|--------------|-------------|-------------|--------------|
|--------------|-------------|-------------|-trill--------|
|--------------|-------------|-------------|-45454--------|
|--------------|-------------|-------------|-------6-5-3--|
|--2-2-3-------|-2-2-4-------|-2-2-3-------|--------------|
|--0-0-1-------|-0-0-2-------|-0-0-1-------|--------------|
|              |             |             |              |
|--------------|-------------|-------------|--------------|
|--------------|-------------|-------------|--------------|
|--45454-------|-45454-------|-45454-------|-45454--------|
|--------6-5-3-|-------6-5-3-|-------6-5-3-|-------6-5-3--|
|--------------|-------------|-------------|--------------|
|--------------|-------------|-------------|--------------|


|--------------|-------------|-------------|--------------|
|--------------|-------------|-------------|-trill--------|
|--------------|-------------|-------------|-45454--------|
|--------------|-------------|-------------|-------6-5-2--|
|--2-2-3-------|-2-2-4-------|-2-2-3-------|--------------|
|--0-0-1-------|-0-0-2-------|-0-0-1-------|--------------|
|              |             |             |              |
|--------------|-------------|-------------|--------------|
|--------------|-------------|-------------|--------------|
|--45454-------|-45454-------|-45454-------|-45454--------|
|--------6-5-3-|-------6-5-3-|-------6-5-3-|-------6-5-2--|
|--------------|-------------|-------------|--------------|
|--------------|-------------|-------------|--------------|

                                                        seven times
|---------------------------------|--------------------------------|
|---------------------------------|--------------------------------|
|o--------------------------------|-------------------------------o|
|o-7-9--9-7-7--7-10-10--10-5-5-5--|-7-9--9-7-7--7-10-10--10-9-9-9-o|
|---------------------------------|--------------------------------|
|---------------------------------|--------------------------------|
|                                 |                                |
|---------------------------------|--------------------------------|
|---------------------------------|--------------------------------|
|o--------------------------------|-------------------------------o|
|o--------------------------------|----------------------10-9-9-9-o|
|--7-9-10-9-9--9-7--7---7--5-5-5--|-7-9-10-9-9--9-7--7-------------|
|---------------------------------|--------------------------------|

                                            four times
|--------|-----------------|-------|-------------------|
|--------|-----------------|-------|-------------------|
|o-------|-----------------|-------|------------------o|
|o---6-6-|---6-6--5-5--8-7-|---6-6-|-5-6--4-----------o|
|--7-4-4-|-7-4-4--3-3--6-5-|-7-4-4-|-3-4--2-5--4-7-3---|
|--5-----|-5---------------|-5-----|--------3--2-5-1---|


|-------------------|-------------------------|-------------------
|-------------------|-------------------------|-------------------
|-------------------|-------------------------|-------------------
|-------------------|-------------------------|------8p7-7h8-8p7--
|-------6p5-5h6-6p5-|-----2/3-3/5-5h6-6p5-5h6-|--6-6--------------
|--3-3--------------|-2-2---------------------|-------------------

                 first repeat    second repeat
-----------------------------|
                             |
|----------------------------|-------------------|
|----------------------------|-------------------|
|----------------------------|-------------------|
|------5/7-7h8-8/10-10\8-8\7-|---5-5/7-8-7-7-8-7-|
|--5-5-----------------------|-------------------|
|----------------------------|-------------------|


|----------|--------|--------|--------------|----------
|----------|--------|--------|--------------|----------
|o---------|--------|--------|-------------o|----------
|o-5-57875-|-4-424--|-8-10-8-|-7-67-78-10--o|----------
|--3-------|-2------|-6------|-5------------|--5--5\---
|----------|--------|--------|--------------|--3--3\\x\



--------------------------------------------------------------------------------
Tabbed and Typed by Justin Mcferran

  Visit MetalTabs.com for more metal tablature

bottom separator

Contact Us | Privacy Policy | Disclaimer | Legal Notice
Copyright © 2001-2014 MetalTabs.com. All Rights Reserved.