top separator

Home

Forum

What's New

Submit a Tab

FAQ

Links

Contact Us

Link to Us

MuSpy.com

MetalTabs.com logo

Bands

0-9

A

B

C

D

E

F

G

H

I

J

K

L

M

N

O

P

Q

R

S

T

U

V

W

X

Y

Z

Search

What

Where
 

Disavowed - "Masses Conformed" Guitar Tab

Plain Text Version
More Disavowed Tabs

Hits: 4019
Rated: 3.00 out of 5 (3 votes)
Updated: 2003-11-30 14:55:24

 

Important note
This tab is available online because we obtained explicit permission from Disavowed or their label.


#----------------------------------PLEASE NOTE---------------------------------#
#This file is the author's own work and represents their interpretation of the #
#song. You may only use this file for private study, scholarship, or research. #
#Unless specified otherwise, this is NOT an official tab from the band members.#
#------------------------------------------------------------------------------#

  Visit MetalTabs.com for more metal tablature
  
Band: Disavowed
     Song: "Masses Conformed"
       CD: Perceptive Deception
   Length: 4:05

   Tuning: (D,G,C,F,A,D)





     Riff A
			                      5x
 D|---------------------------------------------|
 A|---------------------------------------------|
 F|---------------------------------------------|
 C|---------------------------------------------|
 G|------------------------2-2--------2-2-2-2-2-|
 D|-0-0-0-0-0-0-0-0-0-1~---0-0-<2ph~>-0-0-0-0-0-|
 pm . . . . . . . . .      . .        . . . . .




     Riff B
							     5x
 D|------------------------------------------------------------|
 A|------------------------------------------------------------|
 F|------------------------------------------------------------|
 C|------------------------------------------------------------|
 G|-6\5--5-5-5-5-5-5-5-5-5-5--3/5/6\5--5-5-5-5-----------------|
 D|-4\3--3-3-3-3-3-3-3-3-3-3--1/3/4\3--3-3-3-3-4-4-4-4-3-3-3-3-|
 pm      . . . . . . . . . .           . . . . . . . . . . . .




     Riff C
													       4x
 D|--------------------------------------------------------------------------------------------------------------|
 A|--------------------------------------------------------------------------------------------------------------|
 F|--------------------------------------------------------------------------------------------------------------|
 C|--------------------------------------------------------------------------------------------------------------|
 G|---------5-5-------------------------------------------------------5-5------------------6--5------------------|
 D|-3-3-3-3-----6-6-3-3-5-5--6-6-6-6-6-6-6-6--2-2-5-5-2-2-5-5-3-3-3-3-----6-6-3-3-5-5-6-6--6--5--0-0-0-0-0-0-0-0-|
 pm												 . . . . . . . .




     Fill 1

 D|-------------------------------------|
 A|-------------------------------------|
 F|-------------------------------------|
 C|-------------------------------------|
 G|-2-2-2-2-2------2-2--------2-2-2-2-2-|
 D|-0-0-0-0-0-1~---0-0-<2ph~>-0-0-0-0-0-|
 pm . . . . .      . .        . . . . .




     Riff A
			     								    2x
 D|---------------------------------------------|---------------------------------------------|
 A|---------------------------------------------|---------------------------------------------|
 F|---------------------------------------------|---------------------------------------------|
 C|---------------------------------------------|---------------------------------------------|
 G|------------------------2-2--------2-2-2-2-2-|------------------------2-2--------2-2-2-2-2-|
 D|-0-0-0-0-0-0-0-0-0-1~---0-0-<2ph~>-0-0-0-0-0-|-0-0-0-0-0-0-0-0-0-1~---0-0-<2ph~>-0-0-0-0-0-|
 pm . . . . . . . . .      . .        . . . . .   . . . . . . . . .      . .        . . . . .




     Fill 2

 D|-------------------------------------|
 A|-------------------------------------|
 F|-------------------------------------|
 C|-------------------------------------|
 G|-2-2-2-2-2------2-2--------2-2-2-2-2-|
 D|-0-0-0-0-0-1~---0-0-<2ph~>-0-0-0-0-0-|
 pm . . . . .      . .        . . . . .




     Riff D
									    2x
 D|-------------------------------------|-------------------------------------|
 A|-------------------------------------|-------------------------------------|
 F|-------------------------------------|-------------------------------------|
 C|-------------------------------------|-------------------------------------|
 G|-2-2-2-2-2------2-2--------2-2-2-2-2-|-2-2-2-2-2------2-2--------2-2-2-2-2-|
 D|-0-0-0-0-0-1~---0-0-<2ph~>-0-0-0-0-0-|-0-0-0-0-0-1~---0-0-<2ph~>-0-0-0-0-0-|
 pm . . . . .      . .        . . . . .   . . . . .      . .        . . . . .





     Riff B
							     5x
 D|------------------------------------------------------------|
 A|------------------------------------------------------------|
 F|------------------------------------------------------------|
 C|------------------------------------------------------------|
 G|-6\5--5-5-5-5-5-5-5-5-5-5--3/5/6\5--5-5-5-5-----------------|
 D|-4\3--3-3-3-3-3-3-3-3-3-3--1/3/4\3--3-3-3-3-4-4-4-4-3-3-3-3-|
 pm      . . . . . . . . . .           . . . . . . . . . . . .




     Riff E
					   2x
 D|------------------------------------------|
 A|------------------------------------------|
 F|------------------------------------------|
 C|-2---1----------------2---3---------------|
 G|-2-2-1---1-1-1-1-1-1--2-2-3---3-3-3-3-3-3-|
 D|---0--------------------0-----------------|
 pm   .     . . . . . .    .     . . . . . .




     Riff F
					     2x
 D|--------------------------------------------|
 A|--------------------------------------------|
 F|--------------------------------------------|
 C|---3-2-0---5-5-3--2-0----3-2-0---1-1-4------|
 G|-2-3-2-0---5-5-3--2-0--2-3-2-0---1-1-4--4-3-|
 D|-2---------------------2----------------4-3-|
 pm   . . .   . . .  . .    . . .   . . .




     Riff G
                             2x
 D|----------------------------|
 A|----------------------------|
 F|----------------------------|
 C|-2---1---------2---3--------|
 G|-2-2-1--3-6-3--2-2-3--3-6-3-|
 D|---0----1-4-1----0----1-4-1-|
 pm   .    . . .    .    . . .




     Riff F
					     2x
 D|--------------------------------------------|
 A|--------------------------------------------|
 F|--------------------------------------------|
 C|---3-2-0---5-5-3--2-0----3-2-0---1-1-4------|
 G|-2-3-2-0---5-5-3--2-0--2-3-2-0---1-1-4--4-3-|
 D|-2---------------------2----------------4-3-|
 pm   . . .   . . .  . .    . . .   . . .




     Riff G
                             2x
 D|----------------------------|
 A|----------------------------|
 F|----------------------------|
 C|-2---1---------2---3--------|
 G|-2-2-1--3-6-3--2-2-3--3-6-3-|
 D|---0----1-4-1----0----1-4-1-|
 pm   .    . . .    .    . . .




     Riff E
					   2x
 D|------------------------------------------|
 A|------------------------------------------|
 F|------------------------------------------|
 C|-2---1----------------2---3---------------|
 G|-2-2-1---1-1-1-1-1-1--2-2-3---3-3-3-3-3-3-|
 D|---0--------------------0-----------------|
 pm   .     . . . . . .    .     . . . . . .




     Riff B
							     4x
 D|------------------------------------------------------------|
 A|------------------------------------------------------------|
 F|------------------------------------------------------------|
 C|------------------------------------------------------------|
 G|-6\5--5-5-5-5-5-5-5-5-5-5--3/5/6\5--5-5-5-5-----------------|
 D|-4\3--3-3-3-3-3-3-3-3-3-3--1/3/4\3--3-3-3-3-4-4-4-4-3-3-3-3-|
 pm      . . . . . . . . . .           . . . . . . . . . . . .





     Riff C
													       4x
 D|--------------------------------------------------------------------------------------------------------------|
 A|--------------------------------------------------------------------------------------------------------------|
 F|--------------------------------------------------------------------------------------------------------------|
 C|--------------------------------------------------------------------------------------------------------------|
 G|---------5-5-------------------------------------------------------5-5------------------6--5------------------|
 D|-3-3-3-3-----6-6-3-3-5-5--6-6-6-6-6-6-6-6--2-2-5-5-2-2-5-5-3-3-3-3-----6-6-3-3-5-5-6-6--6--5--0-0-0-0-0-0-0-0-|
 pm												 . . . . . . . .





     Riff A
			                      4x
 D|---------------------------------------------|
 A|---------------------------------------------|
 F|---------------------------------------------|
 C|---------------------------------------------|
 G|------------------------2-2--------2-2-2-2-2-|
 D|-0-0-0-0-0-0-0-0-0-1~---0-0-<2ph~>-0-0-0-0-0-|
 pm . . . . . . . . .      . .        . . . . .


 I've got the whole CD tabbed so be patient Disavowed Fans

  Visit MetalTabs.com for more metal tablature

bottom separator

Contact Us | Privacy Policy | Disclaimer | Legal Notice
Copyright © 2001-2014 MetalTabs.com. All Rights Reserved.