top separator

Home

Forum

What's New

Submit a Tab

FAQ

Links

Contact Us

Link to Us

MuSpy.com

MetalTabs.com logo

Bands

0-9

A

B

C

D

E

F

G

H

I

J

K

L

M

N

O

P

Q

R

S

T

U

V

W

X

Y

Z

Search

What

Where
 

Darkthrone - "Graven Takeheimens Saler" Guitar Tab

Plain Text Version
More Darkthrone Tabs

Hits: 6178
Rated: 3.71 out of 5 (7 votes)
Updated: 2004-03-20 13:16:09

 

By:

velzevul

sendpm.gif

email.gif

Important note
This tab is available online because we obtained explicit permission from Darkthrone or their label.


#----------------------------------PLEASE NOTE---------------------------------#
#This file is the author's own work and represents their interpretation of the #
#song. You may only use this file for private study, scholarship, or research. #
#Unless specified otherwise, this is NOT an official tab from the band members.#
#------------------------------------------------------------------------------#

  Visit MetalTabs.com for more metal tablature
  
===================================================
  Special For WwW.DOOMish.com & WwW.MetalTabs.com
===================================================
 Comments and Corrections ---> lord_velzevul@bk.ru
===================================================
                  Tuning: Standart
===================================================
                  band: DARK THRONE
                  song: GRAVEN TAKEHEIMENS SALER
                 album: Transilvanian Hunger (1994)
             tabbed by: Valentine 'Mortal' K.
                  data: 19.03.2004
     shareware version: Release
===================================================
Riff1 <Corrected> (Tremolo Picking)
e|-----------------|
B|-----------------|
G|-7-7-8-8-8-7-4-4-|
D|-5-7-6-8-6-5-2-4-|
A|-5-5-6-6-6-5-2-2-|
E|-----------------|
 or
e|-----------------|
B|-----------------|
G|-5-7-6-8-6-5-2-4-|
D|-5-5-6-6-6-5-2-2-|
A|-----------------|
E|-----------------|
 or
e|-----------------|
B|-----------------|
G|-7-7-8-8-8-7-4-4-|
D|-5-7-6-8-6-5-2-4-|
A|-----------------|
E|-----------------|

Riff2 <Corrected> (Normal Picking)
e|------------------------------------------|
B|------------------------------------------|
G|-7-7-7-7\8/-7-7-7-7\8/-7-7-7-7\8/-4-4-5-5-|
D|-5-5-5-5\6/-5-5-5-5\6/-5-5-5-5\6/-2-2-3-3-|
A|------------------------------------------|
E|------------------------------------------|
 or <Corrected>
e|------------------------------------------|
B|------------------------------------------|
G|-7-7-7-7\8/-7-7-7-7\8/-7-7-7-7\8/-4-4-5-5-|
D|-5-5-5-5\6/-5-5-5-5\6/-5-5-5-5\6/-2-2-3-3-|
A|-5-5-5-5\6/-5-5-5-5\6/-5-5-5-5\6/-2-2-3-3-|
E|------------------------------------------|
 or <New>
e|------------------------------------------|
B|------------------------------------------|
G|-7-7-7-7\8/-7-7-7-7\8/-7-7-7-7\8/-4-4-5-5-|
D|-7-7-7-7\8/-7-7-7-7\8/-7-7-7-7\6/-4-4-5-5-|
A|-5-5-5-5\6/-5-5-5-5\6/-5-5-5-5\6/-2-2-3-3-|
E|------------------------------------------|

Riff3(Tremolo Picking)
(or move all notes one string down)
e|------------------|
B|------------------|
G|------------------|
D|---7-8-10---8-7-5-|
A|-5--------6-------|
E|------------------|
Sorry for mistakes.
Now It's Final Version.

  Visit MetalTabs.com for more metal tablature

bottom separator

Contact Us | Privacy Policy | Disclaimer | Legal Notice
Copyright © 2001-2014 MetalTabs.com. All Rights Reserved.