top separator

Home

Forum

What's New

Submit a Tab

FAQ

Links

Contact Us

Link to Us

MuSpy.com

MetalTabs.com logo

Bands

0-9

A

B

C

D

E

F

G

H

I

J

K

L

M

N

O

P

Q

R

S

T

U

V

W

X

Y

Z

Search

What

Where
 

Suffocation - "Prelude To Repulsion" Guitar Tab

Plain Text Version
More Suffocation Tabs

Hits: 5834
Rated: 3.45 out of 5 (11 votes)
Updated: 2005-01-01 13:03:21

 

By:

Chris Rezendes

sendpm.gif

email.gif

Important note
This tab is available online because we obtained explicit permission from Suffocation or their label.


#----------------------------------PLEASE NOTE---------------------------------#
#This file is the author's own work and represents their interpretation of the #
#song. You may only use this file for private study, scholarship, or research. #
#Unless specified otherwise, this is NOT an official tab from the band members.#
#------------------------------------------------------------------------------#

  Visit MetalTabs.com for more metal tablature
  
================================================================================
Song: Prelude to Repulsion
Artist: Suffocation
Album: Breeding the Spawn (1993, Roadrunner)

Tabbed by Chris Rezendes (dudemcrude@yahoo.com)
Date started tab: 3/27/03
Date finished tab: 3/28/03
Updated: 12/31/04

Tuning: Guitar 1 is in Db/C# (one and half steps down)
        Guitar 2 is in C (two full steps down)
Copy: Second

Notation Key
~  : vibrato
^  : bend
.  : palm mute
r  : release
t  : trill
p  : pull-off
h  : hammer-on
x  : ghost note
/  : slide up
\  : slide down
>< : pinch harmonics
^^ : pinch harmonics & bend
~~ : vibrato & harmonics

Comments: Keep in mind at all times that guitar two is tuned differently than
guitar one, because I figured out all of guitar two's parts while tuned in C.
Don't forget this, it's very important.  That's why everything that's played by
guitar two is clearly marked as such.  If you notice any fuck ups, e-mail me to
let me know.  You can also PM me on the metaltabs.com forums, I'm there quite
often.  This is a MAJOR update, the tab has been largely reformatted, many
things have been added or corrected.
================================================================================

Intro
 |                   Guitar 1                    |
e|-----------|-----------|-----------|-----------|
B|-----------|-----------|-----------|-----------|
G|-----------|-----------|-----------|-----------|
D|-----------|-----------|-----------|-----------|
A|-----------|-----------|-----------|-----------|
E|--2-1-0-1--|--3-2-1-3--|--2-1-0-1--|--3-2-1-3--|

 |                         Guitar 1                           |
e|---------------------------|--------------|-----------------|
B|---------------------------|--------------|-----------------|
G|---------------------------|--------------|-----------------|
D|------------------------5--|--2--2--2--2--|-------5------6--|
A|------------------------3--|--2--2--2--2--|-------3------4--|
E|--00023-00034-00023-000----|--0--0--0--0--|--0000---0000----|
 |                        !GUITAR 2!                          |
e|---------------------------|--------------|-----------------|
B|---------------------------|--------------|-----------------|
G|------------------------6--|--------------|-------6------7--|
D|--3-----3-----3------3--6--|--3--3--3--3--|-------6------7--|
A|--3-----3-----3------3--4--|--3--3--3--3--|-------4------5--|
E|--1-----1-----1------1-----|--1--1--1--1--|--1111---1111----|

            TIME- 0:06

Riff 1 x1
e|------------------------|---------------|-----------------|
B|------------------------|---------------|-----------------|
G|------------------------|---------------|-----------------|
D|------------------------|---------------|-------5------6--|
A|------3-----2--------3--|------3-----2--|-------3------4--|
E|--232---121---013201----|--232---121----|--1111---1111----|

e|------------------------|---------------|---------------------------|
B|------------------------|---------------|---------------------------|
G|------------------------|---------------|---------------------------|
D|------------------------|---------------|------5-----5-----5-----6--|
A|------3-----2--------3--|------3-----2--|------3-----3-----3-----4--|
E|--232---121---013201----|--232---121----|--1-1---1-1---1-1---1-1----|

                                                                -------
                                                                -------
                                                                --^7^--
                                                                -------
                                                                -------
                                                                -------

e|------------------------|---------------|-----------------|
B|------------------------|---------------|-----------------|
G|------------------------|---------------|-----------------|
D|------------------------|---------------|-------5------6--|
A|------3-----2--------3--|------3-----2--|-------3------4--|
E|--232---121---013201----|--232---121----|--1111---1111----|

e|------------------------|---------------|
B|------------------------|---------------|
G|------------------------|---------------|
D|------------------------|---------------|
A|------3-----2--------3--|------3-----2--|
E|--232---121---013201----|--232---121----|

            TIME- 0:24

Fig. 1 x2
e|---------------------------|---------------------------|
B|---------------------------|---------------------------|
G|---------------------------|---------------------------|
D|------5-----5-----5-----6--|------5-----5-----6-----4--|
A|------3-----3-----3-----4--|------3-----3-----4-----2--|
E|--1-1---1-1---1-1---1-1----|--1-1---1-1---1-1---1-1----|

e|---------------------------|---------------------------|
B|---------------------------|---------------------------|
G|---------------------------|---------------------------|
D|------5-----5-----5-----6--|------5-----5-----4-----6--|
A|------3-----3-----3-----4--|------3-----3-----2-----4--|
E|--1-1---1-1---1-1---1-1----|--1-1---1-1---1-1---1-1----|

            TIME- 0:40

Fill 1 x1 (played by guitar 2!!!)
e|-----------------------------------|------------------------|
B|-----------------------------------|------------------------|
G|--6--------6--5--------4--3--------|-------5----------------|
D|--6--7--6--6--5--5--4--4--3--4--3--|--2----5----6----5-666--|
A|--4--7--6--4--3--5--4--2--1--4--3--|--2----3----6-----------|
E|-----5--4--------3--2--------2--1--|--0---------4-----------|

            TIME- 0:47

Riff 2 x1
e|--------------------------------|----------------------------------------|
B|--------------------------------|----------------------------------------|
G|--------------------------------|----------------------------------------|
D|--11111111-------------------3--|--11111111-------------------3333-4444--|
A|-----------22222222----------3--|-----------22222222---------------------|
E|--------------------33333333-1--|--------------------33333333------------|

e|-----------------------------------|----------------------------------------|
B|-----------------------------------|----------------------------------------|
G|-----------------------------------|----------------------------------------|
D|--11111111-------------------3--3--|--11111111-------------------3333-4444--|
A|-----------22222222----------3--3--|-----------22222222---------------------|
E|--------------------33333333-1--1--|--------------------33333333------------|

e|---------------------|------------------|
B|---------------------|------------------|
G|---------------------|------------------|
D|--11111111-----------|-----------4-3-4--|
A|-----------22222222--|--3-3-3-3--4-3-4--|
E|---------------------|--1-1-1-1--2-1-2--|
                          . . . .

e|----------------------------------------|-----------------------------------|
B|----------------------------------------|-----------------------------------|
G|----------------------------------------|-----------------------------------|
D|--11111111-------------------3333-4444--|--11111111-------------------3--3--|
A|-----------22222222---------------------|-----------22222222----------3--3--|
E|--------------------33333333------------|--------------------33333333-1--1--|

e|----------------------------------------|---------------------|
B|----------------------------------------|---------------------|
G|----------------------------------------|---------------------|
D|--11111111-------------------3333-4444--|--11111111-----------|
A|-----------22222222---------------------|-----------22222222--|
E|--------------------33333333------------|---------------------|

            TIME- 1:04

Fig. 2 x1
 |           Guitar 1                                                  |
e|------------------------------|------------------|---------|---------|
B|------------------------------|------------------|---------|---------|
G|------------------------------|------------------|---------|---------|
D|-----------4-3-4-------5-4-5--|-----------4-3-4--|--5-4-5--|--4-3-2--|
A|--3-3-3-3--4-3-4--3-3--5-4-5--|--3-3-3-3--4-3-4--|--5-4-5--|--4-3-2--|
E|--1-1-1-1--2-1-2--1-1--3-2-3--|--1-1-1-1--2-1-2--|--3-2-3--|--2-1-0--|
 |  . . . .         . .         |  . . . .
 |          !GUITAR 2!          |
e|------------------------------|
B|------------------------------|
G|--------------~5~-------------|
D|------------------------------|
A|------------------------------|
E|------------------------------|

 |           Guitar 1                                                   |
e|------------------------------|------------------|--------------------|
B|------------------------------|------------------|--------------------|
G|------------------------------|------------------|------3-------------|
D|-----------4-3-4-------5-4-5--|-----------4-3-4--|--2-3-3-2--2-3-7-6--|
A|--3-3-3-3--4-3-4--3-3--5-4-5--|--3-3-3-3--4-3-4--|--2-3-1-2--2-3-7-6--|
E|--1-1-1-1--2-1-2--1-1--3-2-3--|--1-1-1-1--2-1-2--|--0-1---0--0-1-5-4--|
    . . . .         . .            . . . .

 |           Guitar 1                                                  |
e|------------------------------|------------------|---------|---------|
B|------------------------------|------------------|---------|---------|
G|------------------------------|------------------|---------|---------|
D|-----------4-3-4-------5-4-5--|-----------4-3-4--|--5-4-5--|--4-3-2--|
A|--3-3-3-3--4-3-4--3-3--5-4-5--|--3-3-3-3--4-3-4--|--5-4-5--|--4-3-2--|
E|--1-1-1-1--2-1-2--1-1--3-2-3--|--1-1-1-1--2-1-2--|--3-2-3--|--2-1-0--|
 |  . . . .         . .         |  . . . .
 |          !GUITAR 2!          |
e|------------------------------|
B|------------------------------|
G|--------------~5~-------------|
D|------------------------------|
A|------------------------------|
E|------------------------------|

 |                            Guitar 1                               |
e|------------------------------|------------------|-----------------|
B|------------------------------|------------------|-----------------|
G|------------------------------|------------------|--2-----------5--|
D|-----------4-3-4-------5-4-5--|-----------4-3-4--|--2-3-2---2-3-5--|
A|--3-3-3-3--4-3-4--3-3--5-4-5--|--3-3-3-3--4-3-4--|--0-3-2---2-3-3--|
E|--1-1-1-1--2-1-2--1-1--3-2-3--|--1-1-1-1--2-1-2--|----1-0---0-1----|
 |  . . . .         . .            . . . .                           |
 |                           !GUITAR 2!                              |
e|-------------------------------------------------------------------|
B|-------------------------------------------------------------------|
G|--------------~5~---------~6~--------------------------------------|
D|-------------------------------------------------------------------|
A|----------------------------------------------------------------4~-|
E|-------------------------------------------------------------------|

            TIME- 1:33

Riff 3 x1
e|-------------------|-------------------|-------------------|---------------|
B|-------------------|-------------------|-------------------|---------------|
G|-------------------|-------------------|-------------------|---------------|
D|-------------------|-------------------|-------------------|---------------|
A|----------3--------|----3-----3--------|----------3--------|--3-2-3-5-4-5--|
E|--1-4-1-2---4-3-2--|--1---1-2---4-3-2--|--1-4-1-2---4-3-2--|--1-0-1-3-2-3--|

e|-------------------|-------------------|-------------------|---------------|
B|-------------------|-------------------|-------------------|---------------|
G|-------------------|-------------------|-------------------|---------------|
D|-------------------|-------------------|-------------------|---------------|
A|----------3--------|----3-----3--------|----------3--------|------2-3-5-6--|
E|--1-4-1-2---4-3-2--|--1---1-2---4-3-2--|--1-4-1-2---4-3-2--|--0-1----------|

e|-------------------|-------------------|-------------------|---------------|
B|-------------------|-------------------|-------------------|---------------|
G|-------------------|-------------------|-------------------|---------------|
D|-------------------|-------------------|-------------------|---------------|
A|----------3--------|----3-----3--------|----------3--------|--3-2-3-5-4-5--|
E|--1-4-1-2---4-3-2--|--1---1-2---4-3-2--|--1-4-1-2---4-3-2--|--1-0-1-3-2-3--|

e|-------------------|-------------------|-------------------|
B|-------------------|-------------------|-------------------|
G|-------------------|-------------------|-------------------|
D|-------------------|-------------------|-------------------|
A|----------3--------|----3-----3--------|--666-5-4-555-4-3--|
E|--1-4-1-2---4-3-2--|--1---1-2---4-3-2--|-------------------|

e|-------------------|-------------------|-------------------|
B|-------------------|-------------------|-------------------|
G|-------------------|-------------------|-------------------|
D|--------------4-3--|-------------------|-------------------|
A|--666-5-4-5-6------|----------3--------|----3-----3--------|
E|-------------------|--1-4-1-2---4-3-2--|--1---1-2---4-3-2--|

e|-------------------|---------------|-------------------|-------------------|
B|-------------------|---------------|-------------------|-------------------|
G|-------------------|---------------|-------------------|-------------------|
D|-------------------|---------------|-------------------|-------------------|
A|----------3--------|--3-2-3-5-4-5--|----------3--------|----3-----3--------|
E|--1-4-1-2---4-3-2--|--1-0-1-3-2-3--|--1-4-1-2---4-3-2--|--1---1-2---4-3-2--|

            TIME- 1:55

Riff 4A x3
e|-------------------|-------------------|
B|-------------------|-------------------|
G|-------------------|-------------------|
D|-------------------|-------------------|
A|-------------------|--------------4-3--|
E|--666-5-4-555-4-3--|--666-5-4-5-6------|

Riff 4B x1
 |                          Guitar 1                         |
e|-------------------|-------------------|-------------------|
B|-------------------|-------------------|-------------------|
G|-------------------|-------------------|-------------------|
D|-------------------|-------------------|-------------------|
A|-------------------|--------------4-3--|-------------------|
E|--666-5-4-555-4-3--|--666-5-4-5-6------|--666-5-4-555-4-3--|
 |                         !GUITAR 2!                        |
e|-------------------|-------------------|-------------------|
B|-------------------|-------------------|-------------------|
G|-------------------|--------------7-6--|-------------------|
D|--999-8-7-888-7-6--|--999-8-7-8-9------|--999-8-7-888-7-6--|
A|-------------------|-------------------|-------------------|
E|-------------------|-------------------|-------------------|

            TIME- 2:04

Fill 2 x1 by !GUITAR 2!
e|-----------------------|-------------|---------|
B|-----------------------|-------------|---------|
G|-----------------------|-------------|---------|
D|------6------5---------|-------------|--3-4-5--|
A|--4-5-4--4-5-3--5-4-3--|--3-2-2-3-4--|--3-4-5--|
E|--2-3----2-3----3-2-1--|--1-0-0-1-2--|--1-2-3--|

            TIME- 2:10

Fig. 3 x1 all by !GUITAR 2!
e|--------------------|-----------------|--------------------|
B|--------------------|-----------------|--------------------|
G|--------------------|-----------------|--------------------|
D|-----------3--------|-----------------|--------------------|
A|--2--3--2--1--2--3--|--4--5--3--4--2--|--1/2-2/5--5\4-4\3--|
E|--0--1--0-----0--1--|--2--3--1--2--0--|-----------3\2-2\1--|

e|---------------------------|--------------------|-----------------|
B|---------------------------|--------------------|-----------------|
G|---------------------------|--------------------|-----------------|
D|--3---3-----3---3----------|-----------3--------|-----------------|
A|--1---1-----1---1----------|--2--3--2--1--2--3--|--4--5--3--4--2--|
E|----1---1-2---1---1-2-0-1--|--0--1--0-----0--1--|--2--3--1--2--0--|
      .   . .   .   . . . .

e|---------------------------------|--------------------|-----------------|
B|---------------------------------|--------------------|-----------------|
G|---------------------------------|--------------------|-----------------|
D|---------------------------------|-----------3--------|-----------------|
A|--1/2-2/6-6\5-5/8-8\7-7/10-10\8--|--2--3--2--1--2--3--|--4--5--3--4--2--|
E|---------------------------------|--0--1--0-----0--1--|--2--3--1--2--0--|

e|------------------|---------------------------|--------------------|
B|------------------|---------------------------|--------------------|
G|------------------|---------------------------|--------------------|
D|------------------|--3---3-----3---3----------|-----------3--------|
A|--1/2-2/5--5-5-4--|--1---1-----1---1----------|--2--3--2--1--2--3--|
E|-----------3-3-2--|----1---1-2---1---1-2-0-1--|--0--1--0-----0--1--|
                         .   . .   .   . . . .

e|-----------------|---------------------------------|-----------|
B|-----------------|---------------------------------|-----------|
G|-----------------|---------------------------------|-----------|
D|-----------------|---------------------------------|-----------|
A|--4--5--3--4--2--|--1/2-2/6-6\5-5/8-8\7-7/10-10\8--|--2--3--4--|
E|--2--3--1--2--0--|---------------------------------|--0--1--2--|

            TIME- 2:41

Fill 3 x1
e|-----------|-----------|-----------|-----------|-----------|
B|-----------|-----------|-----------|-----------|-----------|
G|-----------|-----------|-----------|-----------|-----------|
D|-----------|-----------|-----------|-----------|-----------|
A|-----------|------3----|-----------|------3----|-----------|
E|--0-1-5-4--|--0-1---1--|--0-1-5-4--|--0-1---1--|--0-1-4-5--|

            TIME- 2:44

Riff 5A x2
e|-------------------|
B|-------------------|
G|-------------------|
D|--766-----876------|
A|------7-8-----7-8--|
E|-------------------|

Riff 5B x2
 |                 Guitar 1                |
e|--------------------|--------------------|
B|--------------------|--------------------|
G|--------------------|--------------------|
D|--766-----876-------|--766-----876-------|
A|------7-8-----7-8---|------7-8-----7-8---|
E|--------------------|--------------------|
 |                !GUITAR 2!               |
e|--------------------|--------------------|
B|--------------------|--------------------|
G|--------------------|--------------------|
D|--------------------|--------------------|
A|---------------5----|--------------------|
E|--33333333-6-3---3--|--3333-2-1-3-1-2-1--|

 |                 Guitar 1                |
e|--------------------|--------------------|
B|--------------------|--------------------|
G|--------------------|--------------------|
D|--766-----876-------|--766-----876-------|
A|------7-8-----7-8---|------7-8-----7-8---|
E|--------------------|--------------------|
 |                !GUITAR 2!               |
e|--------------------|--------------------|
B|--------------------|--------------------|
G|--------------------|--------------------|
D|--------------------|--------------------|
A|--------------------|--------------------|
E|--5555555555555555--|--4444444444444444--|

            TIME- 2:55

Riff 6 x1
e|---------------------------------------|
B|---------------------------------------|
G|--------7777-6666-7777------6666-7777--|
D|---4444----------------7777------------|
A|---------------------------------------|
E|---------------------------------------|

e|------------------------------------------------|
B|------------------------------------------------|
G|-------7777-6666-----------7777------6666-7777--|
D|--6666-----------6666-5555------4444------------|
A|------------------------------------------------|
E|------------------------------------------------|

e|--------------------------------------|
B|--------------------------------------|
G|-------7777-6666-7777------6666-7777--|
D|----------------------7777------------|
A|--4444--------------------------------|
E|--------------------------------------|

e|--------------------------------------------|
B|--------------------------------------------|
G|-------7777-6666----------------------------|
D|--6666-----------6666-5555-6-6-5-5----------|
A|-----------------------------------4-4-3-3--|
E|--------------------------------------------|

            TIME- 3:04

Fig. 4 x1
 |                            Guitar 1                             |
e|--------------------|---------------|----------------|-----------|
B|--------------------|---------------|----------------|-----------|
G|--------------------|---------------|----------------|-----------|
D|--3--2--4--3--5--4--|---------------|--5555-4444--4--|--4444--4--|
A|--3--2--4--3--5--4--|--3-2-----2-1--|-------------4--|--------4--|
E|--1--0--2--1--3--2--|------2-1------|-------------2--|--------2--|

 |                              Guitar 1                                |
e|----------------|-----------|-------------|---------------------------|
B|----------------|-----------|-------------|---------------------------|
G|----------------|-----------|-------------|---------------------------|
D|--4444-3333--3--|--3333--3--|--3333-2222--|---------------------------|
A|-------------3--|--------3--|-------------|--3-2-----2-1--------------|
E|-------------1--|--------1--|-------------|------2-1-----1-0-4-3-1-0--|

 |                         Guitar 1                        |
e|--------------------|---------------|--------------------|
B|--------------------|---------------|--------------------|
G|--------------------|---------------|--8--7------6-------|
D|--3--2--4--3--5--4--|---------------|--8--7--8-7-6--7-6--|
A|--3--2--4--3--5--4--|--3-2-----2-1--|--6--5--8-7-4--7-6--|
E|--1--0--2--1--3--2--|------2-1------|--------6-5----5-4--|
                                      |     !GUITAR 2!     |
                                      |--------------------|
                                      |--------------------|
                                      |------------^6^-----|
                                      |--------------------|
                                      |--------------------|
                                      |--------------------|

 |                               Guitar 1                                  |
e|-------------------|--------------------|---------------|----------------|
B|-------------------|--------------------|---------------|----------------|
G|-------------------|--------------------|---------------|----------------|
D|-------------------|--3--2--4--3--5--4--|---------------|--5555-4444--4--|
A|--4-3-----3-2------|--3--2--4--3--5--4--|--3-2-----2-1--|-------------4--|
E|------3-2-----2-1--|--1--0--2--1--3--2--|------2-1------|-------------2--|

 |                               Guitar 1                                  |
e|---------------------------------------------|---------------------------|
B|---------------------------------------------|---------------------------|
G|---------------------------------------------|---------------------------|
D|--4444--4--4444-3333--3--3333--3--3333-2222--|---------------------------|
A|--------4-------------3--------3-------------|--3-2-----2-1--------------|
E|--------2-------------1--------1-------------|------2-1-----1-0-4-3-1-0--|
 |                  !GUITAR 2!                 |
 |---------------------------------------------|
 |---------------------------------------------|
 |--6666-----6666-5555-----5555-----5555-4444--|
 |---------------------------------------------|
 |---------------------------------------------|
 |---------------------------------------------|

 |                                  Guitar 1                                   |
e|--------------------|---------------|--------------------|-------------------|
B|--------------------|---------------|--------------------|-------------------|
G|--------------------|---------------|--8--7------6-------|-------------------|
D|--3--2--4--3--5--4--|---------------|--8--7--8-7-6--7-6--|-------------------|
A|--3--2--4--3--5--4--|--3-2-----2-1--|--6--5--8-7-4--7-6--|--4-3-----3-2------|
E|--1--0--2--1--3--2--|------2-1------|--------6-5----5-4--|------3-2-----2-1--|

            TIME- 3:36

Riff 7 x4 (under solo)
e|--------------------------------------|------------------------------------|
B|--------------------------------------|------------------------------------|
G|--------------------------------------|------------------------------------|
D|--------------------------------------|------------------------------------|
A|--------------------------------------|---------------------------------3--|
E|--11111111-4-111111-3-111111-2-1-4-3--|--00000000-3-000000-2-000000-1-0----|

            TIME- 3:53

Fill 4 x1
e|--------------|-----------------|--------------|
B|--------------|-----------------|--------------|
G|--------------|-----------------|--------------|
D|--3--4--3--4--|--33--44--33--4--|--3--4--3--4--|
A|--3--4--3--4--|--33--44--33--4--|--3--4--3--4--|
E|--1--2--1--2--|--11--22--11--2--|--1--2--1--2--|
    .  .  .  .     ..  ..  ..  .     .  .  .  .

            TIME- 3:55

Riff 8 x1
e|-------------------|-----------------|-----------------|-------------------|
B|-------------------|-----------------|-----------------|-------------------|
G|-------------------|-----------------|-----------------|----------4-3------|
D|-------------------|-----------------|-----------------|--1-2-1-0-----5-4--|
A|-------------------|-----------------|-----------------|-------------------|
E|--1-0-2-0-1-0-2-0--|--0-0-1-0-4-0-3--|--0-6-0-1-0-2-0--|-------------------|

e|-------------------|-----------------|-----------------|---------------------|
B|-------------------|-----------------|-----------------|---------------------|
G|-------------------|-----------------|-----------------|----4-3-----6-5------|
D|-------------------|-----------------|-----------------|--1-----5-4-----7-6--|
A|-------------------|-----------------|-----------------|---------------------|
E|--1-0-2-0-1-0-2-0--|--0-0-1-0-4-0-3--|--0-6-0-1-0-2-0--|---------------------|

e|-------------------|-----------------|-----------------|-------------------|
B|-------------------|-----------------|-----------------|-------------------|
G|-------------------|-----------------|-----------------|----------4-3------|
D|-------------------|-----------------|-----------------|--1-2-1-0-----5-4--|
A|-------------------|-----------------|-----------------|-------------------|
E|--1-0-2-0-1-0-2-0--|--0-0-1-0-4-0-3--|--0-6-0-1-0-2-0--|-------------------|

e|-------------------|-----------------|-----------------|---------------------|
B|-------------------|-----------------|-----------------|---------------------|
G|-------------------|-----------------|-----------------|----4-3-----6-5------|
D|-------------------|-----------------|-----------------|--1-----5-4-----7-6--|
A|-------------------|-----------------|-----------------|---------------------|
E|--1-0-2-0-1-0-2-0--|--0-0-1-0-4-0-3--|--0-6-0-1-0-2-0--|---------------------|

e|--------------------|-------------------|-------------------|
B|--------------------|-------------------|-------------------|
G|--7-6-----9-8-------|--4-3-----6-5------|-------------------|
D|------8-7-----10-9--|------5-4-----7-6--|--4-3-----2-1------|
A|--------------------|-------------------|------5-4-----3-2--|
E|--------------------|-------------------|-------------------|

            TIME- 4:15

Riff 9 x4 (tremolo picked!)
e|-----------|-----------|-----------|-----------|
B|-----------|-----------|-----------|-----------|
G|-----------|-----------|-----------|-----------|
D|-----------|-----------|-----------|-----------|
A|--------8--|--------8--|--------8--|--------8--|
E|--6-9-6----|--6-9-6----|--6-9-6----|--6-9-6----|

e|-----------|-----------|-------------------|
B|-----------|-----------|-------------------|
G|-----------|-----------|-------------------|
D|-----------|-----------|-------------------|
A|--------7--|--------7--|-------------------|
E|--5-8-5----|--5-8-5----|--2-1-0-1-3-2-1-2--|

            TIME- 4:32

Fill 5 x1
e|-----------------|
B|-----------------|
G|-----------------|
D|--3---2---5---4--|
A|--3---2---5---4--|
E|--1---0---3---2--|

Riff 10 x4
e|-------------------|
B|-------------------|
G|-------------------|
D|-------------------|
A|-------------------|
E|--2-1-0-1-3-2-1-2--|

End x1
e|--------------|
B|--------------|
G|--------------|
D|--4--3--6--4--|
A|--4--3--6--4--|
E|--2--1--4--2--|

  Visit MetalTabs.com for more metal tablature

bottom separator

Contact Us | Privacy Policy | Disclaimer | Legal Notice
Copyright © 2001-2014 MetalTabs.com. All Rights Reserved.