top separator

Home

Forum

What's New

Submit a Tab

FAQ

Links

Contact Us

Link to Us

MetalTabs.com logo

Bands

0-9

A

B

C

D

E

F

G

H

I

J

K

L

M

N

O

P

Q

R

S

T

U

V

W

X

Y

Z

Search

What

Where
 

My Dying Bride - "The Songless Bird" Guitar Tab

Plain Text Version
More My Dying Bride Tabs

Hits: 7372
Rated: 4.33 out of 5 (3 votes)
Updated: 2001-06-04 08:01:51

 

Important note
This tab is available online because we obtained explicit permission from My Dying Bride or their label.


#----------------------------------PLEASE NOTE---------------------------------#
#This file is the author's own work and represents their interpretation of the #
#song. You may only use this file for private study, scholarship, or research. #
#Unless specified otherwise, this is NOT an official tab from the band members.#
#------------------------------------------------------------------------------#

  Visit MetalTabs.com for more metal tablature
  
Taken with permission from www.MyDyingBride.org

Songless Bird
Piano intro
both guitars
Let the first three chords ring!
D--------2--------5----------8-------------------------------
A-------2--------5-----------6----------8-9-8-7-9-10-9--5
E-------0--------3--------------------------------------------

D--------2--------5----------8-------------------------------
A---------2---------5------------6---------1---------2--------------
E---------0---------3----------------------------------------------3--

Play this one 7 times
D----2-----5----4-----8|---2----5----6----3-
A----2----5----4-----6-|---2----5----4----1-
E----0----3----2--------|---0----3------------


Let the first three chords ring!
D--------2--------5----------8-------------------------------
A-------2--------5-----------6----------8-9-8-7-9-10-9--5
E-------0--------3--------------------------------------------

D--------2--------5----------8-------------------------------
A---------2---------5------------6---------1---------2--------------
E---------0---------3----------------------------------------------3--

First guitar (clean sound) played 10 times
G--------7------------------------------------------------------------
D------------8---7---5---7------------------------------------------
A---5--------------------------8----7-----3---5---3---2---0-------
E-----------------------------------------------------------------3--3

G---------------------------------------------
D------------3---5---6---5---3---5---7---8
A---3---5------------------------------------
E---------------------------------------------

second guitar (heavy distortion) fit it in yourself play it 6 times

A---1-----3-----5-----6|---5----7----10----1----3----5----6
both guitars play it 12 times

D--2-2-2----3-------------------------------
A--2-2-2----1-----2--3--2--0-----0------3
E--0-0-0------------------------4------1----

Let the first three chords ring! Play it 4 times
D--------2--------5----------8-------------------------------
A-------2--------5-----------6----------8-9-8-7-9-10-9--5
E-------0--------3--------------------------------------------

D--------2--------5----------8-------------------------------
A---------2---------5------------6---------1---------2--------------
E---------0---------3----------------------------------------------3--

Play this one 4 times
D----2-----5----4-----8|---2----5----6----3-
A----2----5----4-----6-|---2----5----4----1-
E----0----3----2--------|---0----3------------


--------------------------------------------------------------------------------

Done by Robin Wrethager(solitude@hotmail.com)

  Visit MetalTabs.com for more metal tablature

bottom separator

Contact Us | Privacy Policy | Disclaimer | Legal Notice
Copyright © 2001-2014 MetalTabs.com. All Rights Reserved.