top separator

Home

Forum

What's New

Submit a Tab

FAQ

Links

Contact Us

Link to Us

MuSpy.com

MetalTabs.com logo

Bands

0-9

A

B

C

D

E

F

G

H

I

J

K

L

M

N

O

P

Q

R

S

T

U

V

W

X

Y

Z

Search

What

Where
 

My Dying Bride - "Sear Me MCMXCIII" Guitar Tab

Plain Text Version
More My Dying Bride Tabs

Hits: 6745
Rated: 3.33 out of 5 (3 votes)
Updated: 2001-06-04 08:01:18

 

Important note
This tab is available online because we obtained explicit permission from My Dying Bride or their label.


#----------------------------------PLEASE NOTE---------------------------------#
#This file is the author's own work and represents their interpretation of the #
#song. You may only use this file for private study, scholarship, or research. #
#Unless specified otherwise, this is NOT an official tab from the band members.#
#------------------------------------------------------------------------------#

  Visit MetalTabs.com for more metal tablature
  
Taken with permission from www.MyDyingBride.org

Sear Me MCMXCIII
[piano 0:00]
e|--------------------------------------------
b|-------------6------------------------------
g|---5---------5-----7-----5---------7-----3--
d|---5---------3-----7-----5---------7-----3--
a|---3---------3-----5-----3---------5-----1--
e|---3---------------5-----3---------5-----1--


[violin 0:16]
e|----3-4-3-1/-----3/--1-3--4-1-3-4-(3)-----------------------
b|-------------------------------------1----2/3----5~~~--7~~~~
g|------------------------------------------------------------
d|------------------------------------------------------------
a|------------------------------------------------------------
e|------------------------------------------------------------


[piano 0:16]
e|--------------------------------------------------------------
b|-----4-3-4---------4-3-4----------4-3-4--------4-6-4-3--------
g|--(0)-------5---(0)-------5---(0)-------7---(0)---------------
d|--------------------------------------------------------------
a|--------------------------------------------------------------
e|--------------------------------------------------------------

e|------------------------------------------------------
b|-----4-3-4--------4-3-4--------4-3-4-6------4-6-4-3---
g|--(0)------5---(0)------5---(0)----------(0)----------
d|------------------------------------------------------
a|------------------------------------------------------
e|------------------------------------------------------

[piano 1:04]
e|---------------------------------------
b|-----------8-6---------------8---6-8---
g|---5-7-8-5-----8-7---5-7-8-5---8-------
d|---------------------------------------
a|---------------------------------------
e|---------------------------------------

[piano 3:13]
e|--------------------------------------------
b|-------------6------------------------------
g|---5---------5-----7-----5---------7-----3--
d|---5---------3-----7-----5---------7-----3--
a|---3---------3-----5-----3---------5-----1--
e|---3---------------5-----3---------5-----1--

[piano 3:29]
e|--------------------------------------------------------------
b|-----4-3-4---------4-3-4----------4-3-4--------4-6-4-3--------
g|--(0)-------5---(0)-------5---(0)-------7---(0)---------------
d|--------------------------------------------------------------
a|--------------------------------------------------------------
e|--------------------------------------------------------------

e|------------------------------------------------------
b|-----4-3-4--------4-3-4--------4-3-4-6------4-6-4-3---
g|--(0)------5---(0)------5---(0)----------(0)----------
d|------------------------------------------------------
a|------------------------------------------------------
e|------------------------------------------------------

[piano 4:17 -tough part, not entirely correct I think..-]
e|------------------------------------------------------
b|------8---9---8-----6-8---6-8----8---9---6-8----------
g|--5-7---5---5---5-------5------5---5---5--------------
d|------------------------------------------------------
a|------------------------------------------------------
e|------------------------------------------------------

e|----4-6---8---4-6----4-6----6-8---10---6-8---6-8------
b|--4-----4---4------4------6-----6----6-----6----------
g|------------------------------------------------------
d|------------------------------------------------------
a|------------------------------------------------------
e|------------------------------------------------------

[horns 4:48]
e|------------------------------------------------------
b|---4--3-4----8--6-8----9--8-9-------------------------
g|---5--3-3----8--7-7----9--8-8-------------------------
d|------------------------------------------------------
a|------------------------------------------------------
e|------------------------------------------------------

I haven't figured out the end yet..maybe later!


--------------------------------------------------------------------------------
Transcribed by Armand Veenman (A.Veenman@caiw.nl)

  Visit MetalTabs.com for more metal tablature

bottom separator

Contact Us | Privacy Policy | Disclaimer | Legal Notice
Copyright © 2001-2014 MetalTabs.com. All Rights Reserved.