top separator

Home

Forum

What's New

Submit a Tab

FAQ

Links

Contact Us

Link to Us

MetalTabs.com logo

Bands

0-9

A

B

C

D

E

F

G

H

I

J

K

L

M

N

O

P

Q

R

S

T

U

V

W

X

Y

Z

Search

What

Where
 

Ensiferum - "Goblins Dance" Guitar Tab

Plain Text Version
More Ensiferum Tabs

Hits: 10004
Rated: 3.67 out of 5 (9 votes)
Updated: 2003-11-23 12:52:40

 

By:

Darkenelf

sendpm.gif

email.gif

Important note
This tab is available online because we obtained explicit permission from Ensiferum or their label.


#----------------------------------PLEASE NOTE---------------------------------#
#This file is the author's own work and represents their interpretation of the #
#song. You may only use this file for private study, scholarship, or research. #
#Unless specified otherwise, this is NOT an official tab from the band members.#
#------------------------------------------------------------------------------#

  Visit MetalTabs.com for more metal tablature
  
Band: Ensiferum
Album: Ensiferum
Song: Goblin's Dance
Tabbed by: Martijn Wietsma
Tab Date: 10-09-2003
Email: Northerland@yahoo.co.uk

Standard E Tuning

riff A
|--------------------------------------------------------|
|--------------------------------------------------------|
|--------------------------------------------------------|
|------------------2--2-2--2-----------------------------|
|-3---3---333-3--3-2--2-2--2-3-----3---------------------|
|-1-1-1-1-111-1--1-0--0-0--0-1-111-1---------------------|
    x   x xxx      x  x        xxx		(4x)

riff B
|--------------------------------------------------------|
|--------------------------------------------------------|
|------------------2--2-2--2-----------------------------|
|-3---3---333-3--3-2--2-2--2-3-----3---------------------|
|-1-1-1-1-111-1--1-0--0-0--0-1-111-1---------------------|
|--------------------------------------------------------|
    x   x xxx      x  x        xxx		(2x)

riff C
|--------------------------------------------------------|
|--------------------------------------------------------|
|--------------------------------------------------------|
|--------------------------------------------------------|
|-88888888----------33333333-----------------------------|
|----------99999999----------4444h6666-------------------|
						(2x)
repeat riff A 4x

riff D (0:50)
|--------------------------------------------------------|
|--------------------------------------------------------|
|--------------------------------------------------------|
|----5---------2-----5-----------------------------------|
|-3--3--3---3--2--3--3--3---3----------------------------|
|-1-----1-1-1--0--1-----1-1-1----------------------------|
          x    x          x			(1x)

riff E (0:55)
|--------------------------------------------------------|
|--------------------------------------------------------|
|--------------------------------------------------------|
|-------5------------------5-----------------------------|
|-3-----3--3---333--3------3--3---3----------------------|
|-1-111----1-1-111--1-111-----1-1-1----------------------|
    xxx      x        xxx       x		(1x)

riff F (happy flute) (0:59)
|-0h7-0-10--9p0----7--0h7-0-10--10p9---------------------|
|---------------10-------------------10-12---------------|
|--------------------------------------------------------|
|--------------------------------------------------------|
|--------------------------------------------------------|
|--------------------------------------------------------|
						(2x)
riff G (chords) (0:59)
|--------------------------------------------------------|
|--------------------------------------------------------|
|--------------------------------------------------------|
|-5-5-8---7-3/5---5-5-8---8\7-3/5------------------------|
|-3-3-6---5-1/3---3-3-6---6\5-1/3------------------------|
|--------------------------------------------------------|
						(2x)
riff H (1:08)
|--------------------------------------------------------|
|-------66-4h--------------------------------------------|
|-55-33-------5--1-1-33----------------------------------|
|-----------------------55-1/3---------------------------|
|--------------------------------------------------------|
|--------------------------------------------------------|
						(2x)
repeat riff F+G together 2x

riff I (1:24)
|--------------------------------------------------------|
|--------------------------------------------------------|
|--------------------------------------------------------|
|-222--------333--------222--------333-------------------|
|-222--------333--------222--------333-------------------|
|-000--------111--------000--------111-------------------|
  xxx        xxx        xxx        xxx

play riff F+I together 2x

repeat riff A 2x
repeat riff B 2x
repeat riff A 2x
repeat riff D 1x
repeat riff E 1x
repeat riff F+G 2x
repeat riff H 2x
repeat riff F+I 2x

Solo (too hard to tab out)

repeat riff A 2x
repeat riff B 2x
repeat riff A 2x

riff J (3:05)
|--------------------------------------------------------|
|--------------------------------------------------------|
|--------------------------------------------------------|
|-3---3---3---3--6/8---3--6/8---3--6---------------------|
|-1-1-1-1-1-1-1--4/6-0-1--4/6-0-1--4-0-------------------|
|--------------------------------------------------------|
   x    x   x        x        x   		(4x)

riff K (3:20)
|--------------------------------------------------------|
|--------------------------------------------------------|
|--------------------------------------------------------|
|---111--------111---------------------------------------|
|-3-----1----3-----1-------------------------------------|
|--------------------------------------------------------|
						(1x)
riff L
|------------------------------------------------------------|
|------------------------------------------------------------|
|------------------------------------------------------------|
|-3--8-6--6\5----3--8-6--6\5----6--3-8--6\5----6--3-8--333-3-|
|-1--6-4--4\3----1--6-4--4\3----4--1-6--4\3----4--1-6--111-1-|
|------------------------------------------------------------|
						(2x)   xxx
repeat riff F+G 4x
repeat riff F+I 4x
repeat riff H 4x (till end of song)

  Visit MetalTabs.com for more metal tablature

bottom separator

Contact Us | Privacy Policy | Disclaimer | Legal Notice
Copyright © 2001-2014 MetalTabs.com. All Rights Reserved.